Hatebreed - Live For This Chords & Tabs

 

Live For This Chords & Tabs

Hatebreed Chords & Tabs

Version: 3 Type: Tab 0 ratings
1 star 2 stars 3 stars 4 stars 5 stars
comments

Live For This Tab

#----------------------------------PLEASE NOTE--------------------------------#
#This file is the author's own work and represents their interpretation of the#
#song. You may only use this file for private study, scholarship, or research.#
#-----------------------------------------------------------------------------#
#-- File created with Instab - http://www.pconline.com/~smcarey/instab.html --#
#-----------------------------------------------------------------------------#

Author/Artist: Hatebreed
Title: Live For This
Album: Rise of Brutality
Transcribed by: Jebus Crisp
Email: jebus_crisp1234567890@hotmail.com
Tuning: CGCFAD

x- palm muted
[ Tab from: http://www.guitartabs.cc/tabs/h/hatebreed/live_for_this_tab_ver_3.html ]
It's pretty simple but here you go away
-----------------------------||------------------
-----------------------------||------------------
-----------------------------||------------------
-7-5-8-------7-------7-------||-3333333388888888-
-5-3/6-0-0-0-5-0-0-0-5-0-0-0-||-5555555566666666-
-------0-0-0-0-0-0-0-0-0-0-0-||------------------
       x x x   x x x   x x x                     

-------------------------------------------------
-------------------------------------------------
-------------------------------------------------
-------------------------------------------------
-0--037--376--003p003p005------------------------
-0--037--376--003p003p005------------------------
    xx   xx   xx   x   x                         

-------------------------------------------------
-------------------------------------------------
-------------------------------------------------
--------------------------5555555588888888-------
-0----------0----------0--3333333366666666-------
-0----------0----------0-------------------------
Comments