Hatebreed - I Will Be Heard Chords & Tabs

 

I Will Be Heard Chords & Tabs

Hatebreed Chords & Tabs

Version: 3 Type: Bass Tab

I Will Be Heard Bass Tab

   
Song: I Will Be Heard
Album: Perserverance
Band: Hatebreed
Tabbed By: Masterbasser36

Intro                                       x6
G|-----------------------------------------|
D|-----------------------------------------|
E|-----------------------------------------|
C|-0-1-0-1-3-0-1-0-1-3-0-1-0-1-3-0-0-0-0-0-|

Verse                     x4
G|-----------------------|
D|-----------------------|
E|-----------------------|
C|-3-4-3-6-6-0-0-8-0-0-8-|
      
Chorus                                         x6
G|--------------------------------------------|
D|--------------------------------------------|
E|--------------------------------------------|
C|-0-0-0-0--0-0-0-0--0-0-0-0---5-4-3-5-4-3----|
       
Bridge                              x5
G|---------------------------------|
D|---------------------------------|
E|---------------------------------|
C|-0-0-0-0-1-1-1-1-3-3-3-3-3-3-3-3-|
[ Tab from: http://www.guitartabs.cc/tabs/h/hatebreed/i_will_be_heard_btab_ver_3.html ]
Solo                                        
G|-----------------------------------------|
D|-----------------------------------------|
E|-----------------------------------------|
C|-0-1-0-1-3-0-1-0-1-3-0-1-0-1-3-0-0-0-0-0-|

Intro                                       x4
G|-----------------------------------------|
D|-----------------------------------------|
E|-----------------------------------------|
C|-0-1-0-1-3-0-1-0-1-3-0-1-0-1-3-0-0-0-0-0-|

Verse                     x4
G|-----------------------|
D|-----------------------|
E|-----------------------|
C|-3-4-3-6-6-0-0-8-0-0-8-|

Chorus                                         x4
G|--------------------------------------------|
D|--------------------------------------------|
E|--------------------------------------------|
C|-0-0-0-0--0-0-0-0--0-0-0-0---5-4-3-5-4-3----|

Ending
G|---------------|
D|---------------|
E|---------------|
C|---0---0---0---|


The Song is played quite fast so try and keep up!
Please Comment If You Find Any Mistakes!