Hatebreed - I Will Be Heard Chords & Tabs

 

I Will Be Heard Chords & Tabs

Hatebreed Chords & Tabs

Version: 1 Type: Bass Tab 0 ratings
1 star 2 stars 3 stars 4 stars 5 stars
comments

I Will Be Heard Bass Tab

   
Hatebreed
I Will Be Heard
Album: Perserverance
Tuning: C, G, C, F (D tuning, down 1 step)
Tabber: tazmosis(Whitepny33@aol.com)Ken

I am like 99% sure that this is a correct tab. Easy song, listen to it for ltiming and how the structure is

intro
----------------------
----------------------	6 or 7 times
----------------------	listen to cd 
---0--0----3-1-0-1----	for correct times

then with the guitar
----------------------
----------------------	3 times
----------------------
---0--0----3-1-0-1----
then
----------------------
----------------------
----------------------
---3--0----0-0-0-0----
[ Tab from: http://www.guitartabs.cc/tabs/h/hatebreed/i_will_be_heard_btab.html ]
Pre-Chorus
--------------
--------------
--------------	break
---3-5-3-6----

-----------------|---------------
-----------------|---------------
-----------------|----3----------
---3-5-3-6--0-0--|--0---0-0-0-0--
and then
-----------------|---------------
-----------------|---------------
-----------------|---------------
---3-5-3-6--0-0--|--0-1-0-0-0-0--
switch those two riffs back and forth
however manytimes it is played

Chorus
-------------------|  |---------------|
-------------------|  |---------------|
-------------------|x3|---------------|
---0-0-0-0-0-0-0---|  |-1-0-1-5-4-0---|

Interlusde
-------
-------
-------	play it open
---0---

then back to the intro riff and continue

-that is it, have fun with it.
Comments