Hatebreed - Facing What Consumes You Chords & Tabs

 

Facing What Consumes You Chords & Tabs

Hatebreed Chords & Tabs

Version: 2 Type: Tab 0 ratings
1 star 2 stars 3 stars 4 stars 5 stars
comments

Facing What Consumes You Tab

Tabbed by: Zach
Email: disturbed146968@yahoo.com
Tune to Dropped C

Verse "Facing what..."
|---------------------------------------------------------------|
|---------------------------------------------------------------|
|---------------------------------------------------------------|
|---------5/7-------------5/8-----------------3--------------4--|
|---------3/5-------------3/6-------------3/5------------3/5----|
|-00000000----000000000000----000000000000-------00000000-------|

The second guitar plays only the part below on the first time, then for the rest of the 
plays the same as the other guitar.
|---------------------------------------------------------------|
|---------------------------------------------------------------|
|---------------------------------------------------------------|
|---------5/7-------------5/8-----------------3--------------4--|
|-0-------3/5-------------3/6-------------3/5------------3/5----|
|-0-------------------------------------------------------------|
[ Tab from: http://www.guitartabs.cc/tabs/h/hatebreed/facing_what_consumes_you_tab_ver_2.html ]
Chorus "Doubt me..."
|-----------------------------------------------------------|
|-----------------------------------------------------------|
|-----------------------------------------------------------|
|---------5/7-------------5/8-------------------------------|
|---------3/5-------------3/6-------------0-3---3-5---5-6---|
|-00000000----000000000000----0000000000000-5---5-7---7-8---|

Breakdown "My life..."
|-------------------------------------|-------------------------------------|
|-------------------------------------|-------------------------------------|
|-------------------------------------|-------------------------------------|
|-------------------------------------|-------------------------------------|
|-0--3--0--6--5--3--0--3--0--4--3--1--|-0--3--0--6--5--3--0--3--0--4--3--1--|
|-0--3--0--6--5--3--0--3--0--4--3--1--|-0--3--0--8--7--5--0--3--0--6--5--3--|

Outro "Your doubt..."
|---------------------------------|---------------------------------------|
|---------------------------------|---------------------------------------|
|---------------------------------|---------------------------------------|
|---------8---------7/5-------8/5-|---------8------7/5----------------8/5-|
|-0-------6---------5/3-------6/3-|---------6------5/3----------------6/3-|
|-0-000000--00000000----000000----|-000-000----000------(000-000)-000-----|
The notes at the end in parentheses are only played by one guitar.
Comments