Hatebreed - Empty Promises Chords & Tabs

 

Empty Promises Chords & Tabs

Hatebreed Chords & Tabs

Version: 1 Type: Tab 0 ratings
1 star 2 stars 3 stars 4 stars 5 stars
comments

Empty Promises Tab

Song: Empty Promises
Artist: Hatebreed
Album: Satisfaction is the Death of Desire
Transcribed by: BJ Woodward (sk8ing_woody@hotmail.com)

INTRO:
e|------------------------------------------------------------------|
B|-------------------------------------------------3----------------|
G|-------------------------------------------------2----------------|
D|------3-------1-------3-------1-------3-------1--0----------------|
A|------3-------1-------3-------1-------3-------1--0----------------|
D|-0000-3--0000-1--0000-3--0000-1--0000-3--0000-1--0----------------|

Gtr 1 Holds, Gtr 2 Starts Part 1
[ Tab from: http://www.guitartabs.cc/tabs/h/hatebreed/empty_promises_tab.html ]
Part 1:
e|------------------------------------------------------------------|
B|------------------------------------------------------------------|
G|------------------------------------------------------------------|
D|-3p0-0-0-0-1/3-3-3-3-3p0-0-0-0-1/3-3-3/4--------------------------|
A|-3p0-0-0-0-1/3-3-3-3-3p0-0-0-0-1/3-3-3/4--------------------------|
D|-3p0-0-0-0-1/3-3-3-3-3p0-0-0-0-1/3-3-3/4--------------------------|

Both Guitars Hit This 2 Times, Then One Plays Part 2
e|------------------------------------------------------------------|
B|-3----------------------------------------------------------------|
G|-2----------------------------------------------------------------|
D|-0----------------------------------------------------------------|
A|-0----------------------------------------------------------------|
D|-0----------------------------------------------------------------|

Part 2:
e|------------------------------------------------------------------|
B|------------------------------------------------------------------|
G|------------------------------------------------------------------|
D|-0-3-6-5-3-5------------------------------------------------------|
A|-0-3-6-5-3-5------------------------------------------------------|
D|-0-3-6-5-3-5------------------------------------------------------|

Guitars Tuned Down 1 Full Step To Drop C On Record
Comments