Hatebreed - Driven By Suffering Chords & Tabs

 

Driven By Suffering Chords & Tabs

Hatebreed Chords & Tabs

Version: 1 Type: Tab 0 ratings
1 star 2 stars 3 stars 4 stars 5 stars
comments

Driven By Suffering Tab

Driven by suffering
HATEBREED RULES!!!

Intro and verse
1||-----------------|------------------|----------------|------------------||
2||-----------------|------------------|----------------|------------------||
3||-----------------|------------------|----------------|------------------||
4||---------5--6--8-|-9----------------|-------------10-|-9----------------||
5||-8--7--8-3--4--6-|-7----------------|---------8-7--8-|-7----------------||
6||-6--5--6---------|---00000000000000-|-000000006-5----|---00000000000000-||

   "All of my life..."
1||-----------------|-----------------|-----------------|-----------------||
2||-----------------|-----------------|-----------------|-----------------||
3||-----------------|-----------------|-----------------|-----------------||
4||-2---------------|-2---------------|-2---------------|---------5--6--8-||
5||-2------2--2---2-|-2------2--2---2-|-2------2--2---2-|-8--7--8-3--4--6-||
6||-0------0--0---0-|-0------0--0---0-|-0------0--0---0-|-6--5--6---------||
[ Tab from: http://www.guitartabs.cc/tabs/h/hatebreed/driven_by_suffering_tab.html ]
   "Every single choice I must make..."
1||-----------------|-----------------|-----------------|-----------------||
2||-----------------|-----------------|-----------------|-----------------||
3||-----------------|-----------------|-----------------|-----------------||
4||-2---------------|-2---------------|-2---------------|---------5--6--8-||
5||-2------2--2-----|-2------2--2--2--|-2------2--2-----|-8--7--8-3--4--6-||
6||-0------0--0-----|-0------0--0--0--|-0------0--0-----|-6--5--6---------||

  Heavy bit
1||-----------------|-----------------|-----------------|-----------------|
2||-----------------|-----------------|-----------------|-----------------|
3||-----------------|-----------------|-----------------|-----------------|
4||-----------------|-----------------|-----------------|-----------------|
5||-3-3-2---3---2---|-3---4---3---2---|-3-3-2---3---2---|-3---8---7---4---|
6||-1-1-0---1---0---|-1---2---1---0---|-1-1-0---1---0---|-1---6---5---2---|

1||-----------------|-----------------|-----------------|-----------------||
2||-----------------|-----------------|-----------------|-----------------||
3||-----------------|-----------------|-----------------|-----------------||
4||-----------------|-----------------|-----------------|-----------------||
5||-3-3-2---3---2---|-3---4---3---2---|-3-3-2---3---2---|-3-3-8---7---4---||
6||-1-1-0---1---0---|-1---2---1---0---|-1-1-0---1---0---|-1-1-6---5---2---||
Comments