Haste The Day - Long Way Down Chords & Tabs

 

Long Way Down Chords & Tabs

Haste The Day Chords & Tabs

Version: 1 Type: Tab 0 ratings
1 star 2 stars 3 stars 4 stars 5 stars
comments

Long Way Down Tab

   
this whole song is in drop d tuning.

Intro/Chorus:                  

 E|-----------------------------| repeat x4
 B|-----------------------------|
 G|-----------------------------|
 D|--5-7-7-x-x-10-10-9-7-5-3-~-5|
 A|--5-7-7-x-x-10-10-9-7-5-3-~-5|
 D|--5-7-7-x-x-10-10-9-7-5-3-~-5|

Verse:

 E|--------------------------------------------------------------|
 B|--------------------------------------------------------------|
 G|--------------------------------------------------------------|
 D|--5/7-----7-5-3-~-5-~-5/7-----7-5-3-~-5-~-3-~-5-~-3-~-5-~-7-~-|
 A|--5/7-----7-5-3-~-5-~-5/7-----7-5-3-~-5-~-3-~-5-~-3-~-5-~-7-~-|
 D|--5/7-----7-5-3-~-5-~-5/7-----7-5-3-~-5-~-3-~-5-~-3-~-5-~-7-~-|

Chorus

Verse

Chorus
[ Tab from: http://www.guitartabs.cc/tabs/h/haste_the_day/long_way_down_tab.html ]
Solo:Rhythm guitar   (if u guys figure out he solo, email me)

 E|-------------------------------------| repeat x4
 B|-------------------------------------|
 G|-------------------------------------|
 D|-77777777-33333333-55555555-33333333-|
 A|-77777777-33333333-55555555-33333333-|
 D|-77777777-33333333-55555555-33333333-|

Verse

Chorus

Ending:

 E|------------------------------------------------------|
 B|------------------------------------------------------|
 G|------------------------------------------------------|
 D|-3-~-5-~-3-~-5-~-3-~-5-~-3-~-5-~----7-7-5-~~-7-7-3-~~-|
 A|-3-~-5-~-3-~-5-~-3-~-5-~-3-~-5-~----7-7-5-~~-7-7-3-~~-|
 D|-3-~-5-~-3-~-5-~-3-~-5-~-3-~-5-~----7-7-5-~~-7-7-3-~~-|

Signs:

~ - let ring

/ - go up

if there is any mistakes, fell free to eamil me! have a good day!
Comments