Haste The Day - Blue 42 Chords & Tabs

 

Blue 42 Chords & Tabs

Haste The Day Chords & Tabs

Version: 1 Type: Tab 0 ratings
1 star 2 stars 3 stars 4 stars 5 stars
comments

Blue 42 Tab

   
-------------------------------------------------------------------------------
			     Blue 42 - Haste The Day
-------------------------------------------------------------------------------
Tabbed by: Orion Swift
Email:ddemonhunter@hotmail.com

(please note that although haste the day has 2 guitars, 
i wrote this tab to be played with one guitar other than the intro.)

Tuning: Drop C

Intro, Guitar 1
e|---------------------------------------------------------------------------|
B|---------------------------------------------------------------------------|
G|---------------------------------------------------------------------------|
D|---------------------------------------------------------------------------|
A|--12-12-12-12-12-12-12-12-12-12-12/15/16-12-12-12-12-12-12-12-12-12-12-12--|
E|---------------------------------------------------------------------------|

e|---------------------------------------------------------------------------|
B|---------------------------------------------------------------------------|
G|-------------------------9-------------------------------------------------|
D|-------------------------x-------------------------------------------------|
A|--12-12-12-12-12-12-12-0-7--12-12-12-12-12-12-12-12-12-12-12-12-12-12-12---|
E|-----------------------0---------------------------------------------------|
                         . 
e|---------------------------------------------------------------------------|
B|---------------------------------------------------------------------------|
G|-------------------------------------------------------9-------------------|
D|-------------(9)---------------------------------------x-------------------|
A|--12-12-12-0-----12-12-12-12-12-12-12-12-12-12-12-12-0-7-------------------|
E|-----------0-----------------------------------------0---------------------|
             .                                         .
Intro, Guitar 2 
e|---------------------------------------------------------------------------|
B|---------------------------------------------------------------------------|
G|---------------------------------------------------------------------------|
D|---------------------------------------------------------------------------|
A|--00----00--0-0---0-0-0---00-0-0---000-0-----------------------------------|
E|--00----00--0-0---0-0-0---00-0-0---000-0-----------------------------------|
    ..    ..  . .   . . .   .. . .   ... .

Verse     
e|---------------------------------------------------------------------------|
B|---------------------------------------------------------------------------|
G|---------------------------------------------------------------------------|
D|--9--7--6--7-----7-----7/9----9--7--6--7--6--5v----------------------------|
A|--9--7--6--7-----7-----7/9----9--7--6--7--6--5v----------------------------|
E|--9--7--6--7--0--7--0--7/9----9--7--6--7--6--5v----------------------------|
                .     .
e|---------------------------------------------------------------------------|
B|---------------------------------------------------------------------------|
G|--------------------------------------------------9------------------------|
D|--9--7--6--7-----7-----7/9--9--11--9--7-----------x------------------------|
A|--9--7--6--7-----7-----7/9--7---9--7--5-----------7------------------------|
E|--9--7--6--7--0--7--0--7/9----------------0-0-0----------------------------|
                .     .                     . . .
e|---------------------------------------------------------------------------|
B|---------------------------------------------------------------------------|
G|---------------------------------------------------------------------------|
D|--9--7--6--7-----7-----7/9----9--7--6--7--6--5v----------------------------|
A|--9--7--6--7-----7-----7/9----9--7--6--7--6--5v----------------------------|
E|--9--7--6--7--0--7--0--7/9----9--7--6--7--6--5v----------------------------|
                .     . 
e|---------------------------------------------------------------------------|
B|---------------------------------------------------------------------------|
G|---------------------------------------------------------------------------|
D|--9--7--6--7-----7-----7/9--9--7--6--5----------(7)------------------------|
A|--9--7--6--7-----7-----7/9--9--7--6--5-------------------------------------|
E|--9--7--6--7--0--7--0--7/9--9--7--6--5----0-0-0----------------------------|
                .     .
e|---------------------------------------------------------------------------|
B|---------------------------------------------------------------------------|
G|---------------------------------------------------------------------------|
D|--9--7--6--7-----7-----7/9----9--7--6--7--6--5v----------------------------|
A|--9--7--6--7-----7-----7/9----9--7--6--7--6--5v----------------------------|
E|--9--7--6--7--0--7--0--7/9----9--7--6--7--6--5v----------------------------|
                .     .
e|---------------------------------------------------------------------------|
B|---------------------------------------------------------------------------|
G|--------------------------------------------------9------------------------|
D|--9--7--6--7-----7-----7/9--7---9--7--5-----------x------------------------|
A|--9--7--6--7-----7-----7/9--7---9--7--5-----------7------------------------|
E|--9--7--6--7--0--7--0--7/9--7---9--7--5---0-0-0----------------------------|
                .     .                     . . .
e|---------------------------------------------------------------------------|
B|---------------------------------------------------------------------------|
G|---------------------------------------------------------------------------|
D|---------9------9--9---9-8/9----------9------9--9---9-8/9------------------|
A|---------7------7--7---7-6/7----------7------7--7---7-6/7------------------|
E|--0-0-0-0---0000------0----------0-0-0-0---0000------0---------------------|
    . . . .   ....      .          . . . .   ....      .
e|---------------------------------------------------------------------------|
B|---------------------------------------------------------------------------|
G|---------------------------------------------------------------------------|
D|-----------9------9--9---9-8/9------9--7--6--11--9--8----------------------|
A|-----------7------7--7---7-6/7------7--5--4--9---7--6----------------------|
E|--0-0-0-0---0000------0----------------------------------------------------|
    . . . .   ....      .
e|---------------------------------------------------------------------------|
B|---------------------------------------------------------------------------|
G|---------------------------------------------------------------------------|
D|---------9------9--9---9-8/9----------9------9--9---9-8/9------------------|
A|---------7------7--7---7-6/7----------7------7--7---7-6/7------------------|
E|--0-0-0-0---0000------0----------0-0-0-0---0000------0---------------------|
    . . . .   ....      .          . . . .   ....      .
e|---------------------------------------------------------------------------|
B|---------------------------------------------------------------------------|
G|---------------------------------------------------------------------------|
D|-----------9------9--9---9-8/9------9--7--6--11--9--8----------------------|
A|-----------7------7--7---7-6/7------7--5--4--9---7--6----------------------|
E|--0-0-0-0---0000------0----------------------------------------------------|
    . . . .   ....      .
e|---------------------------------------------------------------------------|
B|---------------------------------------------------------------------------|
G|---------------------------------------------------------------------------|
D|---------9------9--9---9-8/9----------9------9--9---9-8/9------------------|
A|---------7------7--7---7-6/7----------7------7--7---7-6/7------------------|
E|--0-0-0-0---0000------0----------0-0-0-0---0000------0---------------------|
    . . . .   ....      .          . . . .   ....      .
e|---------------------------------------------------------------------------|
B|---------------------------------------------------------------------------|
G|---------------------------------------------------------------------------|
D|----------9------9--9---9-8/9-------9--7--6--11--9--8--9--7--6--11--9--8---|
A|----------7------7--7---7-6/7-------7--5--4--9---7--6--7--5--4--9---7--6---|
E|--0-0-0-0---0000------0----------------------------------------------------|
    . . . .   ....      .
e|---------------------------------------------------------------------------|
B|---------------------------------------------------------------------------|
G|---------------------------------------------------------------------------|
D|---------------------------------------------------------------------------|
A|--7--5--4--9--7--6--7--7--5--4--9--7--6------------------------------------|
E|--7--5--4--9--7--6--7--7--5--4--9--7--6------------------------------------|
    .  .  .  .  .  .  .  .  .  .  .  .  .               
e|----------------------------------------------------------|----------------|
B|----------------------------------------------------------|----------------|
G|-------------------------------------------------------9--|----------------|
D|-------------------------------------------------------x--|----------------|
A|--0-0-0--0-0-0-0-000-0--0-0-0-0-0-0-0--0-0-0-0-0-0-0---7--|-(7)------------|
E|--0-0-0--0-0-0-0-000-0--0-0-0-0-0-0-0--0-0-0-0-0-0-0------|----------------|
    . . .  . . . . ... .  . . . . . . .  . . . . . . . 
[ Tab from: http://www.guitartabs.cc/tabs/h/haste_the_day/blue_42_tab.html ]
e|---------------------------------------------------------------------------|
B|---------------------------------------------------------------------------|
G|---------------------------------------------------------------------------|
D|--9--7--6--7-----7-----7/9----9--7--6--7--6--5v----------------------------|
A|--9--7--6--7-----7-----7/9----9--7--6--7--6--5v----------------------------|
E|--9--7--6--7--0--7--0--7/9----9--7--6--7--6--5v----------------------------|
                .     .
e|---------------------------------------------------------------------------|
B|---------------------------------------------------------------------------|
G|--------------------------------------------------9------------------------|
D|--9--7--6--7-----7-----7/9--9--11--9--7-----------x------------------------|
A|--9--7--6--7-----7-----7/9--7---9--7--5-----------7------------------------|
E|--9--7--6--7--0--7--0--7/9----------------0-0-0----------------------------|
                .     .                     . . .

e|---------------------------------------------------------------------------|
B|---------------------------------------------------------------------------|
G|---------------------------------------------------------------------------|
D|--9--7--6--7-----7-----7/9----9--7--6--7--6--5v----------------------------|
A|--9--7--6--7-----7-----7/9----9--7--6--7--6--5v----------------------------|
E|--9--7--6--7--0--7--0--7/9----9--7--6--7--6--5v----------------------------|
                .     .
e|---------------------------------------------------------------------------|
B|---------------------------------------------------------------------------|
G|--------------------------------------------------9------------------------|
D|--9--7--6--7-----7-----7/9--9--11--9--7-----------x------------------------|
A|--9--7--6--7-----7-----7/9--7---9--7--5-----------7------------------------|
E|--9--7--6--7--0--7--0--7/9----------------0-0-0----------------------------|
                .     .                     . . .
e|---------------------------------------------------------------------------|
B|---------------------------------------------------------------------------|
G|---------------------------------------------------------------------------|
D|-------------------------------------------9------10-------11--------------|
A|--7-------7-------8--------9-7/8\7-7-------7------8--------9---------------|
E|--7-0-000-7-0-000-8--0-000-9-7/8\7-7-0-000---0-000--0-000----0-000---------|
      . ...   . ...    . ...           . ...   . ...  . ...    . ...
e|---------------------------------------------------------------------------|
B|---------------------------------------------------------------------------|
G|---------------------------------------------------------------------------|
D|----------------9------10-------11-----------------------------------------|
A|--7/8\7-7-------7------8--------9------------------------------------------|
E|--7/8\7-7-0-000---0-000--0-000----0-000------------------------------------|
            . ...   . ...  . ...    . ...  (play 3 more times)


e|---------------------------------------------------------------------------|
B|---------------------------------------------------------------------------|
G|---------------------------------------------------------------------------|
D|---------------------------------------------------------------------------|
A|--7h8p7--7-7--7h8p7-8-8-7h8p7-9-9--7h8p7-10-10-----------------------------|
E|---------7-7--------8-8-------9-9--------10-10-----------------------------|

Singing Part: (best i could do on this)
e|---------------------------------------------------------------------------|
B|---------------------------------------------------------------------------|
G|---------------------------------------------------------------------------|
D|---------------------------------------------------------------------------|
A|----------9-9-9-9-9-9--7-7-7-7-7-7-8-8-8-8-8-8--5-5-5-5-5-3-3-3-3-3-3------|
E|--9h10p9--9-9-9-9-9-9--7-7-7-7-7-7-8-8-8-8-8-8--5-5-5-5-5-3-3-3-3-3-3------|
(2 times)

Solo: (again best i could do on this part)
e|---------------------------------------------------------------------------|
B|---------------------------------------------------------------------------|
G|---------------------------------------------------------------------------|
D|---------------------------------------------------------------------------|
A|-7-7-7-7-7-7-7-7-10-10-10-10-10-10-10-9-9-9-9-9-9-9-9-9-9-9-9h10p9-5-5-5-5-|
E|---------------------------------------------------------------------------|

e|---------------------------------------------------------------------------|
B|---------------------------------------------------------------------------|
G|---------------------------------------------------------------------------|
D|---------------------------------------------------------------------------|
A|5-5-5-5-5-3-3-3-3-3-3-3-3-3-3-3-3-3-3-3-2-2-2-2-2-2-2-2-2------------------|
E|---------------------------------------------------------------------------|

e|---------------------------------------------------------------------------|
B|--0h12h14-0h12h14-0h12h14-0h12h14-0h12h14-0h12h14-0h12h14-0h12h14-0h13h15--|
G|---------------------------------------------------------------------------|
D|---------------------------------------------------------------------------|
A|---------------------------------------------------------------------------|
E|---------------------------------------------------------------------------|

e|---------------------------------------------------------------------------|
B|--0h13h14-0h13h15-0h13h15-0h13h15-0h13h15-0h13h15 0h13h15-0h14h16-0h14h16--|
G|---------------------------------------------------------------------------|
D|---------------------------------------------------------------------------|
A|---------------------------------------------------------------------------|
E|---------------------------------------------------------------------------|

e|---------------------------------------------------------------------------|
B|--0h14h16-0h14h16-0h14h16-0h14h16-0h14h16-0h14h16-0h14h16------------------|
G|---------------------------------------------------------------------------|
D|---------------------------------------------------------------------------|
A|---------------------------------------------------------------------------|
E|---------------------------------------------------------------------------|

e|---------------------------------------------------------------------------|
B|-0h13h14-0h13h15-0h13h15-0h13h15-0h13h15-0h13h15-0h13h15-0h13h15-0h13h15---|
G|---------------------------------------------------------------------------|
D|---------------------------------------------------------------------------|
A|---------------------------------------------------------------------------|
E|---------------------------------------------------------------------------|

e|---------------------------------------------------------------------------|
B|-13h14p13-14---------------------------------------------------------------|
G|---------------------------------------------------------------------------|
D|---------------------------------------------------------------------------|
A|---------------------------------------------------------------------------|
E|---------------------------------------------------------------------------|
Breakdown:
e|---------------------------------------------------------------------------|
B|-----------------------7---------------------------------------------------|
G|-----------------------x---------------------------------------------------|
D|-----------------------5---------------------------------------------------|
A|--00-0-0-0-0-0-0-000-0-----------------------------------------------------|
E|--00-0-0-0-0-0-0-000-0-----------------------------------------------------|
Filler(?):
e|---------------------------------------------------------------------------|
B|---------------------------------------------------------------------------|
G|---------------------------------------------------------------------------|
D|---------------------------------------------------------------------------|
A|-12-12-12-12-12-12-12-12-14-14-14-14-14-14-14-14-14-14-15-15-15-15-15-15-15|
E|---------------------------------------------------------------------------|

e|---------------------------------------------------------------------------|
B|---------------------------------------------------------------------------|
G|---------------------------------------------------------------------------|
D|---------------------------------------------------------------------------|
A|-13-13-13-13-13-13-13-13-13-13-13-13-13-13-12-12-12-12-12-12-12-12-12-12-12|
E|---------------------------------------------------------------------------|

e|---------------------------------------------------------------------------|
B|---------------------------------------------------------------------------|
G|---------------------------------------------------------------------------|
D|---------------------------------------------------------------------------|
A|-15-15-15-15-15-15-15-15-15-16-16-16-16-16-16-14-14-14-14-14-14-14-14-14-12|
E|---------------------------------------------------------------------------|

e|---------------------------------------------------------------------------|
B|---------------------------------------------------------------------------|
G|---------------------------------------------------------------------------|
D|---------------------------------------------------------------------------|
A|-12-12-12-12-12-12-12-12-12-12-12-12-15-15-15-15-15-15-15-15-15-16-16-16-16|
E|---------------------------------------------------------------------------|

e|---------------------------------------------------------------------------|
B|---------------------------------------------------------------------------|
G|---------------------------------------------------------------------------|
D|---------------------------------------------------------------------------|
A|-17-17-17-17-17-17-17-17-17-17-17-17-17-17-17-17-17-17-17-17-17-17---------|
E|---------------------------------------------------------------------------
End:
e|---------------------------------------------------------------------------|
B|-----------------------7---------------------------------------------------|
G|-----------------------x---------------------------------------------------|
D|-----------------------5---------------------------------------------------|
A|--00-0-0-0-0-0-0-000-0-----------------------------------------------------|
E|--00-0-0-0-0-0-0-000-0-----------------------------------------------------|

| /  slide up
| \  slide down
| h  hammer-on
| p  pull-off
| v  vibrato
|()  harmonic
| .  Mute note
===============================================================================
Comments