Harvey P J - Meet Ze Monsta Chords & Tabs

 

Meet Ze Monsta Chords & Tabs

Harvey P J Chords & Tabs

Version: 1 Type: Tab 1 rating
1 star 2 stars 3 stars 4 stars 5 stars
comments

Meet Ze Monsta Tab

   
PJ Harvey
Song: Meet Ze Monsta
Album: Too Bring you my love
Tuning D A D G B E


Intro/ main riff x10
E---------------------------
B---------------------------
G--------------------7--5-5-
D---0----0-5--7-7-7--7--5-5-
A---0----0-5--7-7-7--5--3-3-
D---0----0-5--7-7-7---------
   -------------------------
    ^     Pulm Mute Thru
Let first
notes ring!
still P.M.
[ Tab from: http://www.guitartabs.cc/tabs/h/harvey_p_j/meet_ze_monsta_tab.html ]
 
Chorus 0:39-1:15
E----------------
B----------------
G----------------
D---0----0-0-0-0-
A---0----0-0-0-0-
D---0----0-0-0-0-X6
  ---------------
       P.M.
(Meet the monsta)

Bridge x6 2:00
E-----------------
B-----------------
G-----------------
D---0--5-7--0-5-7-
A---0--5-7--0-5-7-
D---0--5-7--0-5-7- X4


Bass riffx10  1:35-2:16
G---------------------
D---------------------
A---------------------
D---0--5-7/--10-10-10-  X10



Main Riff X10
Chorus Riff X6
Main Riff X6
Chorus riff X2
Bass Riff X10
Bridge riff X6
Bass Riff X6
Comments