Harvey Danger - Flagpole Sitta Chords & Tabs

 

Flagpole Sitta Chords & Tabs

Harvey Danger Chords & Tabs

Version: 1 Type: Tab 0 ratings
1 star 2 stars 3 stars 4 stars 5 stars
comments

Flagpole Sitta Tab

Harvey Danger - Flagpole Sitta
Transcribed by James Pfeiffer
Notes: This is Drop-D tuning. There's another transcription but the verses are wrong. This one is 98% correct. If you know any corrections email me at about100000yen@hotmail.com.


Intro:
E----------------------------------------------------------------------------------------
B----------------------------------------------------------------------------------------
G--7-----9------11------14-----12-----11------9------7------5-----9-----5-----9-----7----
D--X-----X-------X-------X------X------X------X------X------X-----X-----X-----X-----X----
A--5-----7-------9------12-----10------9------7------5------3-----7-----3-----7-----5----
D----------------------------------------------------------------------------------------



Verse 1 (quarter notes):
E----------------------------------------------------------------------------------------
B----------------------------------------------------------------------------------------
G-7---------7---------7---------7---------7---------7---------7---------7----------------
D-7---------7---------7---------7---------7---------7---------7---------7----------------
A-5---------5---------5---------5---------5---------5---------5---------5----------------
D----------------------------------------------------------------------------------------
I   had   visions,  I   was   in   them,  I   was   looking   into   the 

E----------------------------------------------------------------------------------------
B----------------------------------------------------------------------------------------
G-2---------2---------2---------2---------2---------2---------2---------2----------------
D-2---------2---------2---------2---------2---------2---------2---------2----------------
A-0---------0---------0---------0---------0---------0---------0---------0----------------
D----------------------------------------------------------------------------------------
Mirror,. . . . . . . . . . . . .              to  see  a  little  bit 

E----------------------------------------------------------------------------------------
B----------------------------------------------------------------------------------------
G-5---------5---------5---------5---------2---------2---------5---------5----------------
D-5---------5---------5---------5---------2---------2---------5---------5----------------
A-3---------3---------3---------3---------0---------0---------3---------3----------------
D----------------------------------------------------------------------------------------
Clearer. . . . . . . .              the   rottenness   and   evil   in 

E----------------------------------------------------------------------------------------
B----------------------------------------------------------------------------------------
G-7---------7---------7---------7---------7---------7---------7---------7----------------
D-7---------7---------7---------7---------7---------7---------7---------7----------------
A-5---------5---------5---------5---------5---------5---------5---------5----------------
D----------------------------------------------------------------------------------------
Me. . . . . . . . . . . . . . . . . . .



Verse 2 (Same as above):
Fingertips have memories,
Mine can't forget the curves of your body
And when I feel a bit naughty
I run it up the flagpole and see 
Who salutes, but no one ever does


Chorus:
E----------------------------------------------------------------------------------------
B----------------------------------------------------------------------------------------
G-7---------7---------7---------7---------7---------7---------7---------7----------------
D-7---------7---------7---------7---------7---------7---------7---------7----------------
A-5---------5---------5---------5---------5---------5---------5---------5----------------
D----------------------------------------------------------------------------------------
                           I'm   not   sick,   but   I'm   not   

E----------------------------------------------------------------------------------------
B----------------------------------------------------------------------------------------
G-9---------9---------9---------9---------9---------9---------9---------9----------------
D-9---------9---------9---------9---------9---------9---------9---------9----------------
A-7---------7---------7---------7---------7---------7---------7---------7----------------
D----------------------------------------------------------------------------------------
  wellllllllllllllllllllllllllllllllll                  And  it's  so 
                                                       (And  it's  a 

E----------------------------------------------------------------------------------------
B----------------------------------------------------------------------------------------
G-5---------5---------5---------5---------5---------5---------5---------5----------------
D-5---------5---------5---------5---------5---------5---------5---------5----------------
A-3---------3---------3---------3---------3---------3---------3---------3----------------
D----------------------------------------------------------------------------------------
  hottttttttttttttttttttttttttttttttttt               'Cause I'm in 
  sinnnnnnnnnnnnnnnnnnnnnnnnnnnnnnnnnnn               to  live  so
E----------------------------------------------------------------------------------------
B----------------------------------------------------------------------------------------
G-7---------7---------7---------7---------7---------7---------7---------7----------------
D-7---------7---------7---------7---------7---------7---------7---------7----------------
A-5---------5---------5---------5---------5---------5---------5---------5----------------
D----------------------------------------------------------------------------------------
  Hellllllllllllllllllllllllllllllllll
  Wellllllllllllllllllllllllllllllllll)


Verse 3:
Been around the world and found that only stupid people are breeding
The cretins cloning and feeding
And I don't even own a tv

Verse 4:
They put me in the hospital for nerves and then they had to commit me
You told them all I was crazy
They cut off my legs now I'm an amputee goddamn you

Chorus (x2)
[ Tab from: http://www.guitartabs.cc/tabs/h/harvey_danger/flagpole_sitta_tab.html ]
Bridge:
E----------------------------------------------------------------------------------------
B----------------------------------------------------------------------------------------
G-2---------2---------2---------2---------2---------2---------2---------2----------------
D-2---------2---------2---------2---------2---------2---------2---------2----------------
A-0---------0---------0---------0---------0---------0---------0---------0----------------
D----------------------------------------------------------------------------------------
               I                  wanna       publish      'zines

E----------------------------------------------------------------------------------------
B----------------------------------------------------------------------------------------
G----------------------------------------------------------------------------------------
D-5---------5---------5---------5---------5---------5---------5---------5----------------
A-5---------5---------5---------5---------5---------5---------5---------5----------------
D-5---------5---------5---------5---------5---------5---------5---------5----------------
                                             And rage against machines

E----------------------------------------------------------------------------------------
B----------------------------------------------------------------------------------------
G----------------------------------------------------------------------------------------
D-3---------3---------3---------3---------3---------3---------3---------3----------------
A-3---------3---------3---------3---------3---------3---------3---------3----------------
D-3---------3---------3---------3---------3---------3---------3---------3----------------
                                                             I   wanna 

E----------------------------------------------------------------------------------------
B----------------------------------------------------------------------------------------
G----------------------------------------------------------------------------------------
D-0---------0---------0---------0---------0---------0---------0---------0----------------
A-0---------0---------0---------0---------0---------0---------0---------0----------------
D-0---------0---------0---------0---------0---------0---------0---------0----------------
  Pierce    my    tongue    it    doesn't    hurt    it    feels   fine

E----------------------------------------------------------------------------------------
B----------------------------------------------------------------------------------------
G-14--------14--------14--------14--------14--------14--------14--------14---------------
D-14--------14--------14--------14--------14--------14--------14--------14---------------
A-12--------12--------12--------12--------12--------12--------12--------12---------------
D----------------------------------------------------------------------------------------
                                                  The  trivial  sublime

E----------------------------------------------------------------------------------------
B----------------------------------------------------------------------------------------
G-12--------12--------12--------12--------12--------12--------12--------12---------------
D-12--------12--------12--------12--------12--------12--------12--------12---------------
A-10--------10--------10--------10--------10--------10--------10--------10---------------
D----------------------------------------------------------------------------------------
                                            I'd like to turn off time

E----------------------------------------------------------------------------------------
B----------------------------------------------------------------------------------------
G-10--------10--------10--------10--------10--------10--------10--------10---------------
D-10--------10--------10--------10--------10--------10--------10--------10---------------
A-8---------8---------8---------8---------8---------8---------8---------8----------------
D----------------------------------------------------------------------------------------
                                                      And kill my mind 

E----------------------------------------------------------------------------------------
B----------------------------------------------------------------------------------------
G-12--------12--------12--------12--------12--------12--------12--------12---------------
D-12--------12--------12--------12--------12--------12--------12--------12---------------
A-10--------10--------10--------10--------10--------10--------10--------10---------------
D----------------------------------------------------------------------------------------
                                                      And kill my 

E----------------------------------------------------------------------------------------
B----------------------------------------------------------------------------------------
G-2---------2---------2---------2---------2---------2---------2---------2----------------
D-2---------2---------2---------2---------2---------2---------2---------2----------------
A-0---------0---------0---------0---------0---------0---------0---------0----------------
D----------------------------------------------------------------------------------------
 Mind. . . . . . . . . . . . . . . . . . . . . . . . . . (continues until verse 5) . . .


Verse 5:
Paranoia, paranoia, everybody's comin' to get me
Just say you've never met me
I'm runnin' underground with the moles, diggin' holes

Verse 6:
I hear the voices in my head, I swear to god it sounds like they're snoring
But if you're bored then you're boring
The agony and the irony are killing me

Chorus

Outro:
E-[x3]-----------------------------------------------------------------------------------
B----------------------------------------------------------------------------------------
G---5/7-------7---------7---------7---------7--------7--------7---------7----------------
D---5/7-------7---------7---------7---------7--------7--------7---------7----------------
A---3/5-------5---------5---------5---------5--------5--------5---------5----------------
D----------------------------------------------------------------------------------------

E----------------------------------------------------------------------------------------
B----------------------------------------------------------------------------------------
G---5/7-------7---------7---------7---------7--------7--------5--------------------------
D---5/7-------7---------7---------7---------7--------7--------5---------0----------------
A---3/5-------5---------5---------5---------5--------5--------3---------0----------------
D-----------------------------------------------------------------------0----------------


Comments