Harvey Danger - Cream And Bastards Rise Chords & Tabs

 

Cream And Bastards Rise Chords & Tabs

Harvey Danger Chords & Tabs

Version: 1 Type: Bass Tab

Cream And Bastards Rise Bass Tab

   
Artist: Harvey Danger
Song: Cream And Bastards Rise
Album: Little By Little
Tabbed by: Kmilongo (kmilo1989@gmail.com)
Tuning: Standard 4-string (GDAE)

Intro

G|--------------|
D|--------------|
A|------22200222|
E|2(x8)---------|

Verse

G|----------------------------------------------|
D|----------------------------------------------|
A|------2(x8)-------2(x8)-----------------------|
E|2(x8)-------2(x8)-------0(x8)-555-33333-2(x16)|

Chorus

G|------------------|
D|------------------|
A|------2(x8)-------|
E|0(x8)-------2(x16)|

Post Chorus
[ Tab from: http://www.guitartabs.cc/tabs/h/harvey_danger/cream_and_bastards_rise_btab.html ]
G|------------------|
D|------------------|
A|5(x8)/0(x8)-------|
E|------------2(x16)|

Bridge

G|-----------------------|
D|-----------------------|
A|5(x8)/0(x8)-------2(x8)|
E|------------0(x8)------| (x2)

G|------------------------------|
D|------------------------------|
A|5(x8)/0(x8)-------------------|
E|------------0(x8)-3(x8)-2(x16)|

Outro

G|-----------|
D|-----------|
A|5(x8)/0(x8)|
E|-----------|

G|--------|
D|--------|
A|--------|
E|22222020| (x7)

G|-------|
D|-------|
A|-------|
E|2-2-2-2|

Order:

Intro  x2
Verse  x3
Chorus x2
Post Chorus
Verse  x2
Chorus x2
Bridge
Verse  x2
Chorus x2
Outro