Haruna Luna - Ai Wo Utae Chords & Tabs

 

Ai Wo Utae Chords & Tabs

Haruna Luna Chords & Tabs

Version: 1 Type: Bass Tab 0 ratings
1 star 2 stars 3 stars 4 stars 5 stars
comments

Ai Wo Utae Bass Tab

   
Song: Ai wo Utae
Artist: Haruna Luna (http://www.harunaluna.jp/)
Tabbed By : ChaelMi
e-mail: ikel_22@yahoo.com


(00:08) Intro
|----------------------------|--------------------------------|
|----------------------------|------------------------9h10p9--|
|-\555--------------------97-|-555------------------12------9-|
|------578765-333-356-578----|-----578765-333-356-5/----------|2x


(00:28) Verse
|-------|--------------------------------------------|-------------------------|
|-------|-3h53---------------------------------------|-------------------------|
|-/10~\-|-----53-------------3-55555-757/910-101097\-|----------5-----5-----55-|
|-------|-------535--3(14x)-5------------------------|-0--135--7-7--57---575---|


(00:48) Pre-Chorus
|------------------------------------|--------------------------|
|------------------------------------|--------------------------|
|-33-33-33-33-5303--22-22-22-22-4202-|-----------------2-3-55/\-|
|------------------------------------|-0(8x)-2(8x)-3235-5-5-----|


(00:58) Chorus
|----------------------------|-------------------------------|
|----------------------------|---------------------------98--|
|-------55555---5--75--108---|---------22--55--333--232/9--9-|
|-33333/------77-7---7----10-|-5(6x)-33--33--33----3---------|

|---------------------------|---------------------------------|----------------------------------|
|---------------------------|---------------------------8h98--|----------------------------------|
|-------55555---5-7--567657-|---------22--55--333--232/9----9-|-77-66-576--55-44-3-343-------3-5-|
|-33333/------77-7--7-------|-5(6x)-33--33--33----3-----------|-------------------5---5--3-6-----|

[ Tab from: http://www.guitartabs.cc/tabs/h/haruna_luna/ai_wo_utae_btab.html ]
(01:26) Post-Chorus
|---------------------------------------------|
|---------------------------------------------|
|-/1013151617-/10131589-/1013151617-/10131589-|
|---------------------------------------------|


(01:35) VerseII
|---------------------|--------------------------------------|-------------------------|
|---------------------|-53-----------------------------------|-------------------------|
|-/10~\-1010-99-88-77-|---53---------3-55555-757/910-101097\-|----------5-----5-----55-|
|---------------------|-----53(14x)-5------------------------|-0--135--7-7--57---575---|


(01:55) *Repeat Pre-Chorus
(02:05) *Repeat Chorus


(02:43) Bridge
|------------------|---------------|----------------------------|-----|
|------------------|---------------|------------------------12\-|-----|
|-/\33-43022-------|----5-----22---|-------22------------10-----|-/15-|
|-----------320230-|-335-3-355--33-|-5-35-3--32023-5-7-8--------|-----|


(03:07) *Repeat Chorus


(03:37) Outro
|----------------------------|--------------------------------|
|----------------------------|------------------------9h10p9--|
|-\555--------------------97-|-555------------------12------9-|
|------578765-333-356-578----|-----578765-333-356-5/----------|

|---------------------------|---------------------------------------------------|
|---------------------------|---------------------------------------------------|
|-555--------------------97-|-555------------------------151515-----101010------|
|-----578765-333-356-578----|-----578765-333/666-888-666/-------666--------10~\-|


| /  slide up
| \  slide down
| h  hammer-on


Please rate and comment!
Suggestions are welcome.
Comments