Harry Mclintock - Big Rock Candy Mountain Chords & Tabs

 

Big Rock Candy Mountain Chords & Tabs

Harry Mclintock Chords & Tabs

Version: 1 Type: Tab 0 ratings
1 star 2 stars 3 stars 4 stars 5 stars
comments

Big Rock Candy Mountain Tab

   
				Big Rock Candy Mountain
				    Harry McLintock

          C
1 E-----------0---------------0---------------0--------------|
  B-----------1---------------1---------------1--------------|
  G-----------0---------------0---------------0--------------|
  D-----------------------------------------------0-------0--|
  A-------3-------0-------3-------0-------3-----------3------|
  E---3---------------3---------------3----------------------|

2 E----------------------------------------------------------|
  B----------------------------------------------------------|
  G----------------------------------------------------------|
  D-----------------------------------------------0---0------|
  A-------3---3---0-------3---3---0-------3---3--------------|
  E---3---------------3---------------3----------------------|
			Blend line 3 with line 2

3 E-----------0-------0-------0-------0--------0-------0-------0---|
  B-----------1-------1-------1-------1--------1-------1-------1---|
  G-----------0-------0-------0-------0--------0-------0-------0---|
  D---2------------------------------------------------------------|
  A-------3-------3---------------3----------------3---------------|
  E-----------------------3----------------3---------------3-------|

4 E---------------------------------------------------------------------|
  B---------------------------------------------------------------------|
  G-------0-------------------------------------------------------------|
  D---2-----------------------------------------------------------0---0-|
  A-------------------3---3---3---0-------3---3-----------3---3---------|
  E-----------3---3-------------------3-----------3---3-----------------|
			Blend line 5 with line 4

5 E-------0-------0-------0-------0-------0-------0-------0-------0---|
  B-------1-------1-------1-------1-------1-------1-------1-------1---|
  G-------0-------0-------0-------0-------0-------0-------0-------0---|
  D-------------------------------------------------------------------|
  A---3---------------3---------------3---------------3---------------|
  E-----------3---------------3---------------3---------------3-------|

6 E-----------------------------------------------------------------------|
  B-----------------------------------------------------------------------|
  G-------0---0---2---2---2---2---0---0---2---2---0---0---2---0-----------|
  D---2-----------------------------------------------------------3---2---|
  A-----------------------------------------------------------------------|
  E-----------------------------------------------------------------------|
			Blend line 7 with line 6

                      F       C       F       C       F       C
7 E-------0-------0-------1-------0-------1-------0-------1-------0---|
  B-------1-------1-------1-------1-------1-------1-------1-------1---|
  G-------0-------0-------2-------0-------2-------0-------2-------0---|
  D-------------------3---------------3---------------3---------------|
  A---3-----------------------3---------------3---------------3-------|
  E-----------3-------------------------------------------------------|

8 E---------------------------------------------------------------|
  B---------------------------------------------------------------|
  G---------------------------------------------------------------|
  D---0---------------------------------------------------0---0---|
  A---------------3---3---0-------3---3---0-------3---3-----------|
  E-------3---3---------------3---------------3-------------------|
			Blend line 9 with line 8

     G                C                                       G
9 E-------3-------3-------0-------0-------0-------0-------0-------3---|
  B-------0-------0-------1-------1-------1-------1-------1-------0---|
  G-------0-------0-------0-------0-------0-------0-------0-------0---|
  D-----------0-------------------------------------------------------|
  A-------------------3---------------3---------------3---------------|
  E---3-----------------------3---------------3---------------3-------|


10 E------------------|------------------------------------------------|
   B------------------|----------------------------------------1---1---|
   G------------------|.---------------------0---0---0--2---2----------|
   D---2-------2---0--|.-------------0---2-----------------------------|
   A-------3----------|-3---3---3--------------------------------------|
   E------------------|------------------------------------------------|
			Blend Line 11 with line 10
[ Tab from: http://www.guitartabs.cc/tabs/h/harry_mclintock/big_rock_candy_mountain_tab.html ]
       C                                               F
11 E-------0-------0--|--------0-------0-------0-------0-------1-------1---|
   B-------1-------1--|--------1-------1-------1-------1-------1-------1---|
   G-------0-------0--|.-------0-------0-------0-------0-------2-------2---|
   D------------------|.-----------------------------------3---------------|
   A---3--------------|----3---------------3-----------------------3-------|
   E-----------3------|------------3---------------3-----------------------|


12 E---------------------------------------------------------------|
   B-----------------------1---1-----------------------------------|
   G---0---0---0---2---2-----------0---0---0---0---2---0-----------|
   D-------------------------------------------------------3---2---|
   A---------------------------------------------------------------|
   E---------------------------------------------------------------|
			Blend line 13 with line 12

       C               F               C
13 E-------0-------0-------1-------1-------0-------0-------0-------0---|
   B-------1-------1-------1-------1-------1-------1-------1-------1---|
   G-------0-------0-------2-------2-------0-------0-------0-------0---|
   D-------------------3-----------------------------------------------|
   A---3-----------------------3-------3---------------3---------------|
   E-----------3-------------------------------3---------------3-------|


14 E--------------------------------------------------------------|
   B------------------------------------------------------1---1---|
   G----------------------------------0---0---0---2---2-----------|
   D---0---2---0--------------0---2-------------------------------|
   A---------------3---3---3--------------------------------------|
   E--------------------------------------------------------------|
			Blend line 15 with line 14

       G               C                               F
15 E-------3-------3-------0-------0-------0-------0-------1-------1---|
   B-------0-------0-------1-------1-------1-------1-------1-------1---|
   G-------0-------0-------0-------0-------0-------0-------2-------2---|
   D-----------0---------------------------------------3---------------|
   A-------------------3---------------3-----------------------3-------|
   E---3-----------------------3---------------3-----------------------|


16 E----------------------------------------------------------------------------------|
   B----------------------------------------------------------------------------------|
   G---0---0---0---2---2---2---0---0---0---2---2---2---0---0---2---2---2--0-----------|
   D--------------------------------------------------------------------------2---2---|
   A----------------------------------------------------------------------------------|
   E----------------------------------------------------------------------------------|
			Blend line17 with line 16

       C               F       C       F       C       F       C
17 E-------0-------0-------1-------0-------1-------0-------1-------0---|
   B-------1-------1-------1-------1-------1-------1-------1-------1---|
   G-------0-------0-------2-------0-------2-------0-------2-------0---|
   D-------------------3---------------3---------------3---------------|
   A---3-----------------------3---------------3---------------3-------|
   E-----------3-------------------------------------------------------|

                                          __________________
                                          |1.
18 E--------------------------------------------------------|
   B--------------------------------------------------------|
   G---2---2---0-----------0---0---0-----------------------.|
   D---------------2---2---------------2---0---------------.|
   A-------------------------------------------3---2---0----|
   E--------------------------------------------------------|
			Blend line 19 with line 18

                                     ___________________
       F       C       G             |1. C
19 E-------1-------0-------3-------3---------0-------0-------0-------0----|
   B-------1-------1-------0-------0---------1-------1-------1-------1----|
   G-------2-------0-------0-------0---------0-------0-------0-------0---.|
   D---3-----------------------0-----------------------------------------.|
   A-----------3-------------------------3---------------3----------------|
   E-------------------3-------------------------3---------------3--------|


    ______________
    |2.
20 E---------------|
   B---------------|
   G---------------|
   D---0-----------|
   A-------3-------|
   E---------------|
	Blend line 21 with line 20

   _______________
   |2. C
21 E-------0---0---|
   B-------1---1---|
   G-------0---0---|
   D---------------|
   A---3-----------|
   E---------------|


beaverman4@zoomtown.com
Comments