Harry Chapin - Cats In The Cradle Chords & Tabs

 

Cats In The Cradle Chords & Tabs

Harry Chapin Chords & Tabs

Version: 2 Type: Tab

Cats In The Cradle Tab

Cats In The Cradle Bass Tab



Verse Part: 2 (comes in during first verse)
G---------------|-------|
D-1-0-----------|-------|
A-----3-1-------|-------|
E---------4-3-1-|-4-3-1-|

Chorus
G-------------------------------|
D---3-3-3---1-1-----------------|
A-3-------3---------------------|
E---------------3-4-4-4-4-6-6-6-|
[ Tab from: http://www.guitartabs.cc/tabs/h/harry_chapin/cats_in_the_cradle_tab_ver_2.html ]
Pre-verse/ Outro
G---------------------------|
D-2h3-2h3-2h3-3-------3-----|
A---------------2h3-----2h3-|
E-------------------1-------|

Verse (not played during first verse)
G-----------------|
D-----------------|
A---------------3-|
E-1-4-6-4-6-4-1---|

Bridge
G---------------------|
D-------------3---3---|
A-----------3---3---3-|
E-4-4-6-3-1-----------|

Pre-verse after Bridge
G-----|-----|-----|-----|-----|
D---3-|---3-|---3-|---3-|-----|
A-3---|-3---|-3---|-3---|-2h3-|
E-----|-----|-----|-----|-----|

Legend:

h - Hammer-On