Harry Belafonte - Lion Sleeps Tonight Chords & Tabs

 

Lion Sleeps Tonight Chords & Tabs

Harry Belafonte Chords & Tabs

Version: 1 Type: Tab 0 ratings
1 star 2 stars 3 stars 4 stars 5 stars
comments

Lion Sleeps Tonight Tab

   
Name:  The Lion Sleeps Tonight
Artist:
Tabbed by:  Joel Estes


The intro riff is pretty easy.  It's based off of a minor pentanonic scale.  Really no shocker here, just 
fun to play.
 Feel free to whistle if it floats your boat.

Intro/Verse riff

e---------------------------------------------------------------|
B-----7---9---7---9----10----9----7---------7-----9----7--------|
G--9-------------------------------------9----------------------|
D---------------------------------------------------------------|
A---------------------------------------------------------------|
E---------------------------------------------------------------|
[ Tab from: http://www.guitartabs.cc/tabs/h/harry_belafonte/lion_sleeps_tonight_tab.html ]
e------------------------7--------------------------------------|
B-------9---7~---------------9----7---9----9----10------9-------|
G---9-----------------------------------------------------------|
D---------------------------------------------------------------|
A---------------------------------------------------------------|
E---------------------------------------------------------------|

e---------------------------------------------------------------|
B---7----------7-----9----7-------------9-----7~----------------|
G--------9------------------------9-----------------------------|
D---------------------------------------------------------------|
A---------------------------------------------------------------|
E---------------------------------------------------------------|

Chorus? (strum chord freely)

G               G

A weema wet A weema wet

C               C

A weema wet A weema wet


That's it i believe..  I have a tabbed verson of the breakdown part in the song..  if you're so inclined 
wanna learn it just email me for that or if you have any bitches or complaints to:   SoupNaziSP@AOL.com

Be sure to look for the heavy version of "The Lion Sleeps Tonight"..  coming to a Guitar Tab Universe near you

Thanks..

Joel Estes
Comments