Harry - So Real Chords & Tabs

 

So Real Chords & Tabs

Harry Chords & Tabs

Version: 1 Type: Tab 0 ratings
1 star 2 stars 3 stars 4 stars 5 stars
comments

So Real Tab

#-----------------------------------------------------------------------------#
#-- File created with Instab - http://www.pconline.com/~smcarey/instab.html --#
#-----------------------------------------------------------------------------#

Author/Artist: Harry
Title: So Real
Transcribed by: Andrew Biles

The bars in this tab represent the sections of which to repeat.  The first bar
is played once in the intro then they play the second bar repeating until the
extra drum beat is heard.  The other sections basically follow the lyrics written
underneath.

|-----------------------|-------------------|-----------------|--------------
|-----------------------|-------------------|---------7-8-7---|--------------
|-----------------------|-------------------|---------------7-|--------------
|-------------4-5-4-----|---------4-5-4-----|-----------------|--------------
|-9-9-9-7-5-5-------5-5-|-9-/7-/5-------5-5-|-9-/7-/5---------|--------------
|-----------------------|-------------------|-----------------|--------------
                                                                  just don't   

----------------------------------------------------------------------------
----------------------------------------------------------------------------
------4-------2-----------------------------------4------2------------------
------4-------2----------5------------------------4------2------------------
------2-------0----------5------------------------2------0------------------
-------------------------3--------------------------------------------------
 have faith eh.... would you come back for tea if I gave you your cue would   

----------------|-------------------------------------------------------
----------------|-------------5^-----------------------------------12---
----------------|--7-------------7-7-------------------------------x----
-5--------------|--7-----------------------------------------------9----
-5--------------|--5----------------------------------------------------
-3--------------|-------------------------------------------------------
 you? would you?  wouldn't it be so nice to feel something so real? you       

-------------------------------|------------------------|-------------------|-
--10--------------8------------|------------------------|-------------------|-
--x---------------x------------|------------------------|-------------------|-
--7---------------5------------|--------------4-5-4-----|---------4-5-4-----|-
-------------------------------|--9-9-9-7-5-5-------5-5-|-9-/7-/5-------5-5-|-
-------------------------------|------------------------|-------------------|-
 wouldn't have to live at all.                                                
[ Tab from: http://www.guitartabs.cc/tabs/h/harry/so_real_tab.html ]
-----------------|--------------------------------------------------------
---------7-8-7---|--------------------------------------------------------
---------------7-|-4-----2-----------------------------------------4------
-----------------|-4-----2----------------5------------------------4------
-9-/7-/5---------|-2-----0----------------5------------------------2------
-----------------|------------------------3-------------------------------
                   feeling......... would you come back for tea if I gave     

-------------------------------------|--------------------------------
-------------------------------------|-------------5^-----------------
-2-----------------------------------|--7-------------7-7-------------
-2-------------------5---------------|--7-----------------------------
-0-------------------5---------------|--5-----------------------------
---------------------3---------------|--------------------------------
 you youre cue would you? would you?   wouldn't it be so nice to feel         

-----------------------------------------------------|------------8-----------
-------------------12----10--------------8-----------|-7-8-8-7--7-----7-8-8---
-------------------x-----x---------------x-----------|------------------------
-------------------9-----7---------------5-----------|------------------------
-----------------------------------------------------|------------------------
-----------------------------------------------------|------------------------
 something so real? you wouldn't have to live at all                          

------10-|-15-14-12-10-8-7------------|--------------------------------
-7--7----|-----------------10-8-7-7-7-|-------------5^-----------------
---------|----------------------------|--7-------------7-7-------------
---------|----------------------------|--7-----------------------------
---------|----------------------------|--5-----------------------------
---------|----------------------------|--------------------------------
                                        wouldn't it be so nice to feel

-----------------------------------------------------|
-------------------12----10--------------8-----------|
-------------------x-----x---------------x-----------|
-------------------9-----7---------------5-----------|
-----------------------------------------------------|
-----------------------------------------------------|
 something so real? you wouldn't have to live at all 

There we go, that's all done.  In the chorus I think there may be a second guitar
holding the D chord from the start as it sounds a bit empty without it, so after
the two picks on D (fret 7) on the G string, you can play the D5 chord again and
it should sound fuller.  Also no strumming pattern is put on this tab and it's
just the chord/note outline.

any questions? andrewbiles@hotmail.com
Comments