Harry - Imagination Chords & Tabs

 

Imagination Chords & Tabs

Harry Chords & Tabs

Version: 1 Type: Tab 0 ratings
1 star 2 stars 3 stars 4 stars 5 stars
comments

Imagination Tab

#-----------------------------------------------------------------------------#
#-- File created with Instab - http://www.pconline.com/~smcarey/instab.html --#
#-----------------------------------------------------------------------------#

Author/Artist: Harry
Title: Imagination 
From 'Under the Covers' Ep [SINGLE]
Transcribed by: Andrew Biles

Look At
http://www.amazon.co.uk/exec/obidos/ASIN/B00008RH9J/qid=1050273717/
       sr=1-1/ref=sr_1_2_1/026-0296892-4583610 

There is one part in this song that I don't totally know with the 544 major chord
being arpeggiated cos it doesn't totally sound right, but I can't find anything
that does.  as for the rest of the song, it sounds 99% correct to me and I've
just written it starting from about 30 seconds in because it sounds like it's the
bass playing the first part.  also I couldn't find any tabs for this anywhere, or
their homepage which also didn't help too much so it's all been done from
scratch.  enjoy, and please write down any corrections you have in the box.

----2------------------------2-----------------------2------4------7----------
------3--2-3---9^-7-5-3-2------3--2-3------0-------3------4------9--------7^--
--4------------------------4-------------4-------4------5------9------4-7-----
---------------------------------------2--------------------------------------
------------------------------------------------------------------------------
------------------------------------------------------------------------------
  ^slight echo                                                                

-----2------4------7----------------------------------------------------------
---3------4------9------------------------------------------------------------
-4------5------9------9-9-9-9-9-9-9-9-9-9-9-9-9-9-9-9----11-11-14-14/--13-13--
----------------------9-9-9-9-9-9-9-9-9-9-9-9-9-9-9-9----x--x--x--x----x--x---
----------------------7-7-7-7-7-7-7-7-7-7-7-7-7-7-7-7----9--9--12-12/--11-11--
------------------------------------------------------------------------------
                      ^ distortion                (imagination......)         

------------------------------------------------------------------------------
------------------------------------------------------------------------------
-13-13-13-13-13-13-13-13-13---11-11-14-14/--13-13-13-13-13-13-13-13-13-13-13--
-x--x--x--x--x--x--x--x--x----x--x--x--x----x--x--x--x--x--x--x--x--x--x--x---
-11-11-11-11-11-11-11-11-11---9--9--12-12/--11-11-11-11-11-11-11-11-11-11-11--
------------------------------------------------------------------------------
                                                                              

-----------------------------------------------2------------------------2-----
-------------------------------------------------3--2-3---9^-7-5-3-2------3---
-13---11-11-14-14/--13-13-13-13-13-13-13-13--4------------------------4-------
-x----x--x--x--x----x--x--x--x--x--x--x--x------------------------------------
-11---9--9--12-12/--11-11-11-11-11-11-11-11-----------------------------------
------------------------------------------------------------------------------
                                             ^echo                            

------------------2------------------------2---------------------2------------
-2-3------0---------3--2-3---9^-7-5-3-2------3--2-3------0---------3--2-3-----
--------4-------4------------------------4-------------4-------4--------------
------2----------------------------------------------2------------------------
------------------------------------------------------------------------------
------------------------------------------------------------------------------
                                                                              

-----------------2------4------7--------------2------4------7-----------------
-9^-7-5-3-2----3------4------9--------7^----3------4------9-------------------
-------------4------5------9------9-7-----4------5------9------9-9-9-9-9-9-9--
---------------------------------------------------------------9-9-9-9-9-9-9--
---------------------------------------------------------------7-7-7-7-7-7-7--
------------------------------------------------------------------------------
                                                               ^distortion    
[ Tab from: http://www.guitartabs.cc/tabs/h/harry/imagination_tab.html ]
------------------------------------------------------------------------------
------------------------------------------------------------------------------
-9-9-9-9-9-9-9-9-9----11-11-14-14/--13-13-13-13-13-13-13-13-13-13-13-13---11--
-9-9-9-9-9-9-9-9-9----x--x--x--x----x--x--x--x--x--x--x--x--x--x--x--x----x---
-7-7-7-7-7-7-7-7-7----9--9--12-12/--11-11-11-11-11-11-11-11-11-11-11-11---9---
------------------------------------------------------------------------------
                                                                              

------------------------------------------------------------------------------
------------------------------------------------------------------------------
-11-14-14---13-13-13-13-13-13-13-13-13-13-13-13-13---11-11-14-14/--13-13-13---
-x--x--x----x--x--x--x--x--x--x--x--x--x--x--x--x----x--x--x--x----x--x--x----
-9--12-12---11-11-11-11-11-11-11-11-11-11-11-11-11---9--9--12-12/--11-11-11---
------------------------------------------------------------------------------
                                                                              

-------------------2------------------------2---------------------2-----------
---------------------3--2-3---9^-7-5-3-2------3--2-3------0---------3--2-3----
-13-13-13-13-13--4------------------------4-------------4-------4-------------
-x--x--x--x--x----------------------------------------2-----------------------
-11-11-11-11-11---------------------------------------------------------------
------------------------------------------------------------------------------
                 ^echo                                                        

---------------2--------------------2------4------7--------------2------4-----
-9^-7-5-3-2------3--2-3------0----3------4------9--------7^----3------4-------
-------------4-------------4----4------5------9------9-7-----4------5------9--
-------------------------2----------------------------------------------------
------------------------------------------------------------------------------
------------------------------------------------------------------------------
                                                                              

---7--------------------------------------------------------------------------
-9----------------------------------------------------------------------------
------9-9-9-9-9-9-9-9-9-9-9-9-9-9-9-9----11-11-14-14/--13-13-13-13-13-13-13---
------9-9-9-9-9-9-9-9-9-9-9-9-9-9-9-9----x--x--x--x----x--x--x--x--x--x--x----
------7-7-7-7-7-7-7-7-7-7-7-7-7-7-7-7----9--9--12-12/--11-11-11-11-11-11-11---
------------------------------------------------------------------------------
                                                                              

------------------------------------------------------------------------------
------------------------------------------------------------------------------
-13-13-13-13-13---11-11-14-14/--13-13-13-13-13-13-13-13-13-13-13-13---11-11---
-x--x--x--x--x----x--x--x--x----x--x--x--x--x--x--x--x--x--x--x--x----x--x----
-11-11-11-11-11---9--9--12-12/--11-11-11-11-11-11-11-11-11-11-11-11---9--9----
------------------------------------------------------------------------------
                                                                              

------------------------------------------------------------------------------
------------------------------------------------------------------------------
-14-14/--13-13-13-13-13-13-13-13-----------9-9--9-9--9-9--9-9--9-9--11-11-14--
-x--x----x--x--x--x--x--x--x--x------------9-9--9-9--9-9--9-9--9-9--x--x--x---
-12-12/--11-11-11-11-11-11-11-11-----------7-7--7-7--7-7--7-7--7-7--9--9--12--
----------------------------------2-2-5-5-------------------------------------
                                                                              

------------------------------------------------------------------------------
------------------------------------------------------------------------------
-14/--13-13-13-13-13-13-13-13---11-11-14-14/--13-13-13-13-13-13-13-13---11-11-
-x----x--x--x--x--x--x--x--x----x--x--x--x----x--x--x--x--x--x--x--x----x--x--
-12/--11-11-11-11-11-11-11-11---9--9--12-12/--11-11-11-11-11-11-11-11---9--9--
------------------------------------------------------------------------------
                                                                              

------------------------------------2------------------------2----------------
--------------------------------------3--2-3---9^-7-5-3-2------3--2-3------0--
-14-14/--13-13-13-13-13-13-13-13--4------------------------4-------------4----
-x--x----x--x--x--x--x--x--x--x----------------------------------------2------
-12-12/--11-11-11-11-11-11-11-11----------------------------------------------
------------------------------------------------------------------------------
                                  ^echo and strange whirling noise            

---2------------------------2----------------
-----3--2-3---9^-7-5-3-2------3--2-3------0--
-4------------------------4-------------4----
--------------------------------------2------
---------------------------------------------
---------------------------------------------

if you've had any problems with the tab feel free to e-mail me
(andrewbiles@hotmail.com) to ask about it, otherwise leave a comment in the
comment box. thanks
Comments