Harrison George - Stuck Inside A Cloud Chords & Tabs

 

Stuck Inside A Cloud Chords & Tabs

Harrison George Chords & Tabs

Version: 1 Type: Tab 0 ratings
1 star 2 stars 3 stars 4 stars 5 stars
comments

Stuck Inside A Cloud Tab

   
#----------------------------------PLEASE NOTE---------------------------------#
#This file is the author's own work and represents their interpretation of the #
#song. You may only use this file for private study, scholarship, or research. #
#------------------------------------------------------------------------------#

Stuck Inside A Cloud - George Harrison - Brainwashed - Tabbed by Alex Mondragon -
contact me at almondragon@sbcglobal.net if you have questions


Intro

E||----------------------|------------------------|-------------------------|
B||----------------------|-------------8/---10----|--13----13----15b---13---|
G||--7r---5----7/---9----|--14~---9---------------|-------------------------|
D||----------------------|------------------------|-------------------------|
A||----------------------|------------------------|-------------------------|
E||----------------------|------------------------|-------------------------|

--------------------------|-----------------------|
--13----13b---10----10----|--10/---12/---8~-------|
--------------------------|-----------------------|
--------------------------|-----------------------|
--------------------------|-----------------------|
--------------------------|-----------------------|

C              
Solo 1
------------------------|--------------------------|------------------------|
------------------------|--------10----12b---10----|------------------------|
--12b---9----12~---9/---|--12----------------------|--12----9----12----9----|
------------------------|--------------------------|------------------------|
------------------------|--------------------------|------------------------|
------------------------|--------------------------|------------------------|

-------------------------|
-------------10----10~---|
--9/---12----------------|
-------------------------|
-------------------------|
-------------------------|

   
Solo 2


|------------------------|
|-------------10~---8----|
|--9/---12---------------|
|------------------------|
|------------------------|
|------------------------|

-----------------------|---------------------|------------8--------|
--10~---8----10~-------|--17/-------8--------|--10-----------------|
-----------------------|---------------------|---------------------|
-----------------------|---------------------|---------------------|
-----------------------|---------------------|---------------------|
-----------------------|---------------------|---------------------|
[ Tab from: http://www.guitartabs.cc/tabs/h/harrison_george/stuck_inside_a_cloud_tab.html ]
--10~-------8~-------|---------------------|----------------------|
---------------------|--10--------8--------|-----------------5----|
---------------------|---------------------|--7r---5/---7---------|
---------------------|---------------------|----------------------|
---------------------|---------------------|----------------------|
---------------------|---------------------|----------------------|

----------------------|--5-------------------|--5-------------------|
--5----8----5----8----|-------8----5----8----|-------8b---8b---8----|
----------------------|----------------------|----------------------|
----------------------|----------------------|----------------------|
----------------------|----------------------|----------------------|
----------------------|----------------------|----------------------|

------------------------|--------------------------|------------------------|
--5----8----10~---13----|--13----13b---15b---15b---|--15r---13/---10~-------|
------------------------|--------------------------|------------------------|
------------------------|--------------------------|------------------------|
------------------------|--------------------------|------------------------|
------------------------|--------------------------|------------------------|


F            


Final Solo

-----------------------|--------------------------|-----------------------|
--10p---8---------8h---|--10----10/---13----10~---|------------10/---8----|
-------------9---------|--------------------------|--7/---9---------------|
-----------------------|--------------------------|-----------------------|
-----------------------|--------------------------|-----------------------|
-----------------------|--------------------------|-----------------------|

-----------------------|-------------------------|----------------------|
-------8----10----8----|--13b---10/---8/---10----|----------------------|
--9--------------------|-------------------------|--7b---7b---5----7----|
-----------------------|-------------------------|----------------------|
-----------------------|-------------------------|----------------------|
-----------------------|-------------------------|----------------------|

----------------------|----------------------|-----------------12~---|
----------------------|----------------------|-----------------------|
--7/---9/---7/---5----|----------------------|-----------------------|
----------------------|----------------------|-----------------------|
----------------------|--5b---5b---3----5----|--7p---5p---3----------|
----------------------|----------------------|-----------------------|

--12~---12~---12~--------|-------0--------||
-------------------------|-------1--------||
-------------------------|-------0--------||
-------------------------|-------2--------||
-------------------------|-------3--------||
--------------------5----|--3----0--------||


This tab is the author's own work and represents their interpretation  #
#of the song. You may only use this file for private study, scholarship, or   #
#research. Remember to view this file in Courier, or some other monospaced    #
#font.
Comments