Harrison George - Run Of The Mill Chords & Tabs

 

Run Of The Mill Chords & Tabs

Harrison George Chords & Tabs

Version: 1 Type: Tab 0 ratings
1 star 2 stars 3 stars 4 stars 5 stars
comments

Run Of The Mill Tab

   
#----------------------------------PLEASE NOTE---------------------------------#
#This file is the author's own work and represents their interpretation of the #
#song. You may only use this file for private study, scholarship, or research. #
#------------------------------------------------------------------------------#

Run of the Mill ("All Things Must Pass")

George Harrison

 
this is one of my favorite ones off of "All things must pass".
hard to find a tab for it. enjoy!

p.s.  corrected the second measure.. its a G after all.





Capo 7th fret.  thats right.. 7

 
Intro:

G               Em         G                          
|--3--3---------0--------|-2-h3-2--0-----------------|
|--3--3---------0--------|-3----3--3--3--1--0--------|
|--4--4-----4---0--------|-0-------0--0--0--0--2--0--|
|--5--5--5------2--------|-0-------0--0--0--0--0--0--|
|--5--5---------2--------|---------------------------|
|--3--3---------0--------|---------------------------|


  C       Em            D                          repeat
|--------------------|--2----2---2--2--3--2---0---2--2--|
|-------------0------|--3----3---3--3--3--3---3---3--3--|
|------0----0---0----|--2----2---2--2--2--2---2---2--2--|
|----2---------------|--0----0---0--0--0--0---0---0--0--|
|--3------2----------|----------------------------------|
|--------------------|----------------------------------|


 D
|--2----2---2--2--3--2--0-----------------|
|--3----3---3--3--3--3--3--3--1--0--------|
|--2----2---2--2--2--2--2--2--2--2--2--0--|
|--0----0---3--0--0--0--0--0--0--0--0--0--|
|-----------------------------------------|
|-----------------------------------------|


(Verse: Guitar continues the intro riff... chorus is strummed chords)
 

 

Ref:
[ Tab from: http://www.guitartabs.cc/tabs/h/harrison_george/run_of_the_mill_tab.html ]
Am          B7            Em                  E
  No one around you will carry the blame for you

Am          B7
  No one around you,

      C                    B7
Will love you today and throw it all away

 

 
(play intro riff again.  land on G):


G               Em         G                          
|--3--3---------0--------|-2-h3-2--0-----------------|
|--3--3---------0--------|-3----3--3--3--1--0--------|
|--4--4-----4---0--------|-0-------0--0--0--0--2--0--|
|--5--5--5------2--------|-0-------0--0--0--0--0--0--|
|--5--5---------2--------|---------------------------|
|--3--3---------0--------|---------------------------|


  C       Em            D                          repeat
|--------------------|--2----2---2--2--3--2---0---2--2--|
|-------------0------|--3----3---3--3--3--3---3---3--3--|
|------0----0---0----|--2----2---2--2--2--2---2---2--2--|
|----2---------------|--0----0---0--0--0--0---0---0--0--|
|--3------2----------|----------------------------------|
|--------------------|----------------------------------|


 D                                           G
|--2----2---2--2--3--2--0-----------------|--3--------||
|--3----3---3--3--3--3--3--3--1--0--------|--3--------||
|--2----2---2--2--2--2--2--2--2--2--2--0--|--4--------||
|--0----0---3--0--0--0--0--0--0--0--0--0--|--5--------||
|-----------------------------------------|--5--------||
|-----------------------------------------|--3--------||



Notes:

in the end of the intro, i like to play the D chord with my index finger on the first
string, ring on second string, and middle finger on the third string.  it
makes it easier to play the ... thing.... that sounds cool..... i dunno what
its called..... you know what i mean.
 

im pretty sure the B7 chord in the refrain is played in this form:

B7: x24242  (barre across 2)
Comments