Harrison George - P2 Vatican Blues Chords & Tabs

 

P2 Vatican Blues Chords & Tabs

Harrison George Chords & Tabs

Version: 1 Type: Bass Tab 0 ratings
1 star 2 stars 3 stars 4 stars 5 stars
comments

P2 Vatican Blues Bass Tab

   
----------------------------------PLEASE NOTE---------------------------------#
#This file is the author's own work and represents their interpretation of the #
#song. You may only use this file for private study, scholarship, or research. #
#------------------------------------------------------------------------------#

Title: P2 Vatican Blues
Artist: George Harrison
Album: Brainwashed

Instrument: 4 String Bass

Tabbed by: RighteousDuncan 

Tuning: Standard (E A D G)

The amount of notes may not be exact but it is the note change that is 
important. This is the closest I could get it:

Inro

G|-------------------------------------------------------------------||
D|---------0-0-0-0---------------------------------------------------||
A|-----------------0-0-----------------------------------------------||
E|-0-0-0-0--------------4-4-3-3-2-2-0-0------------------------------||


G|-------------------------------------------------------------------||
D|-------------------------------------------------------------------||
A|----------------0-0-0-0-0-0-0-0-0-0-5-5-5-5-5-5-0-0-0-0------------||
E|--0-0-0-0-0-0------------------------------------------------------||
   

G|-------------------------------------------------------------------||
D|-------------------------------------------------------------------||
A|-0-0-0-0-0-0-0-0-0-0-0-0-0-0-0-2-2-2---------0-0-0-----------------||
E|-------------------------------------0-0-0-0-----------------------||

G|-------------------------------------------------------------------||
D|-------------------------------------------0-0-0-0-0---------------||
A|-----------0-0-0-0-0-0-0-0-0-0-0-0-0-0-0-0-----------0-0-0-0-0-0-0-||
E|-0-0-0-0-0---------------------------------------------------------||
   


G|-------------------------------------------------------------------||
D|----------------------4-4-4-4-4-4----------------------------------||
A|-0-0-0-0-0-0-0-0-0-0--------------2-2-2--------0-0-0-0-------------||
E|----------------------------------------0-0-0----------------------||
  

G|--------------------------------------------------------||
D|--------------------------------------------------------||
A|-0-0-0-0-0-0-0-0-0-0-0-0--------------------------------||
E|--------------------------0-0-0-0-0-0-0-0-0-0-0-0-------||

G|-------------------------------------------------------------------||
D|-0-0-0-0-0-0-0-0-0-0-0-0-0-0-0-0-0-0-0-0-0-0-0-0-------------------||
A|-------------------------------------------------0-0-0-0-0-0-0-0-0-||
E|-------------------------------------------------------------------||

[ Tab from: http://www.guitartabs.cc/tabs/h/harrison_george/p2_vatican_blues_btab.html ]
G|-------------------------------------------------------------------||
D|-------------------------------------------------------------------||
A|-2-2-2-2-2-2-2-2-2-2-2-2-2-2-2-2-2-2-2-----------------------------||
E|--------------------------------------0-0-0-0-0-0-0-0-0-0-0--------||
   

G|-------------------------------------------------------------------||
D|------------------------------------------0-0-0-0-0-0-0-0-0-0-0-0--||
A|------------0-0-0-0-0-0-0-0-0-0-0-0-0-0-0------------------------0-0|
E|-0-0-00-0-0--------------------------------------------------------||
 

G|-------------------------------------------------------------------||
D|--------------------------4-4-4-4-4--------------------------------||
A|-0-0-0-0-0-0-0-0-0-0-0-0-0---------2-2-2--------0-0-0-0-0-0-0-0-0-0||
E|----------------------------------------0-0-0-0--------------------||
  

G|-------------------------------------------------------------------||
D|-0-0-0-0-0-0-0-0-0-0-0-0-0-0-0-0-0-0-------------------------------||
A|------------------------------------0-0-0-0-0-0-0-0----------------||
E|-------------------------------------------------------------------||
  

G|-------------------------------------------------------------------||
D|-------------------------------------------------------------------||
A|-2-2-2-2-2-2-2-2-2-2-2-2-2-2-2-2-2-2-------------------------------||
E|------------------------------------0-0-0-0-0-0-0-0-0-0------------||
 

G|-------------------------------------------------------------------||
D|------------------------------------------0-0-0-0-0-0-0-0-0-0-0-0--||
A|------------0-0-0-0-0-0-0-0-0-0-0-0-0-0-0------------------------0-0|
E|-0-0-00-0-0--------------------------------------------------------||
 

G|-------------------------------------------------------------------||
D|--------------------------4-4-4-4-4--------------------------------||
A|-0-0-0-0-0-0-0-0-0-0-0-0-0---------2-2-2--------0-0-0-0-0-0-0-0-0-0||
E|----------------------------------------0-0-0-0--------------------||
 

G|-------------------------------------------------------------------||
D|--------------------------4-4-4-4-4--------------------------------||
A|-0-0-0-0-0-0-0-0-0-0-0-0-0---------2-2-2--------0-0-0-0-0-0-0-0-0-0||
E|----------------------------------------0-0-0-0--------------------||


G|-------------------------------------------------------------------||
D|--------------------------4-4-4-4-4--------------------------------||
A|-0-0-0-0-0-0-0-0-0-0-0-0-0---------2-2-2--------0-0-0-0-0-0-0-0-0-0||
E|----------------------------------------0-0-0-0--------------------||
  


Thanks
RighteousDuncan
Comments