Harrison George - Cheer Down Chords & Tabs

 

Cheer Down Chords & Tabs

Harrison George Chords & Tabs

Version: 1 Type: Tab 0 ratings
1 star 2 stars 3 stars 4 stars 5 stars
comments

Cheer Down Tab

   
#----------------------------------PLEASE NOTE---------------------------------#
#This file is the author's own work and represents their interpretation of the #
#song. You may only use this file for private study, scholarship, or research. #
#------------------------------------------------------------------------------#

Cheer Down - George Harrison - Best of Dark Horse

Tabbed by:Alex Mondragon(AMDrag)
Email:almondragon@sbcglobal.net
Tuning:Standard

Email any corrections to almondragon@sbcglobal.net.

Intro
E||-----------------------------------------------------------------------------------------
B||--5/-7----5/---7----3/---5----3--------------3----5/---7----5/---7----5----7---5--3------
G||-----------------------------------3----2--------------------------------------------3/2-
D||-----------------------------------------------------------------------------------------
A||-----------------------------------------------------------------------------------------
E||-----------------------------------------------------------------------------------------

1st solo
E||----------------------|----------------------|-------------------------|
B||-------3/---7~---5/---|--3---------3/---5----|--3/---15/---13/---11/---|
G||--2-------------------|-------2--------------|-------------------------|
D||----------------------|----------------------|-------------------------|
A||----------------------|----------------------|-------------------------|
E||----------------------|----------------------|-------------------------|


                                                                            
--------------------------|-----------------------|-----------------12b---||
--13/---11~---11/---10----|--10/---8/---7/---5----|--7/---8/---7----------||
--------------------------|-----------------------|-----------------------||
--------------------------|-----------------------|-----------------------||
--------------------------|-----------------------|-----------------------||
--------------------------|-----------------------|-----------------------||



Final Solo(D and Gm)


E||----------------------|----------------------|--------10----12/---14~---|
B||--5/---7~---5/---7----|--3/---5/---3---------|--10----------------------|
G||----------------------|-----------------3~---|--------------------------|
D||----------------------|----------------------|--------------------------|
A||----------------------|----------------------|--------------------------|
E||----------------------|----------------------|--------------------------|


                                                                             
----------------------|--------10----12/---14/---|--10----12~---10----------|
--10--------10~-------|--10----------------------|--------------------11----|
----------------------|--------------------------|--------------------------|
----------------------|--------------------------|--------------------------|
----------------------|--------------------------|--------------------------|
----------------------|--------------------------|--------------------------|


                                                      
--------10----12----12b---|--12/---14~---14----15----|
--10----------------------|--------------------------|
--------------------------|--------------------------|
--------------------------|--------------------------|
--------------------------|--------------------------|
--------------------------|--------------------------|


                                                                               
--15/---17/---15----14~---|--10/---12----10----------|--------10----12b-------|
--------------------------|--------------------11~---|--10--------------------|
--------------------------|--------------------------|------------------------|
--------------------------|--------------------------|------------------------|
--------------------------|--------------------------|------------------------|
--------------------------|--------------------------|------------------------|


                                                                     
--12/-------14--------|--14/-------10--------|--10b-----------------|
----------------------|----------------------|------------11--------|
----------------------|----------------------|----------------------|
----------------------|----------------------|----------------------|
----------------------|----------------------|----------------------|
----------------------|----------------------|----------------------|


                                                                     
--14/-------17--------|--15b-------14--------|--12/-------10/-------|
----------------------|----------------------|----------------------|
----------------------|----------------------|----------------------|
----------------------|----------------------|----------------------|
----------------------|----------------------|----------------------|
----------------------|----------------------|----------------------|


                                                                   
--12/-------14--------|--12--------10--------|--------------------|
----------------------|----------------------|--11~---------------|
----------------------|----------------------|--------------------|
----------------------|----------------------|--------------------|
----------------------|----------------------|--------------------|
----------------------|----------------------|--------------------|


                                                               
--------------------|--------------------|--------------------|
-----------3--------|--5/-------7--------|--------------------|
--2-----------------|--------------------|--2--------2~-------|
--------------------|--------------------|--------------------|
--------------------|--------------------|--------------------|
--------------------|--------------------|--------------------|


                                                                
--------------------|---------------------|--------------------|
--7--------8--------|--10~-------8--------|--7--------3/-------|
--------------------|---------------------|--------------------|
--------------------|---------------------|--------------------|
--------------------|---------------------|--------------------|
--------------------|---------------------|--------------------|

[ Tab from: http://www.guitartabs.cc/tabs/h/harrison_george/cheer_down_tab.html ]
                                                                
--------------------|--------------------|---------------------|
--5--------3--------|--------------------|--3/-------15/-------|
--------------------|--3--------2~-------|---------------------|
--------------------|--------------------|---------------------|
--------------------|--------------------|---------------------|
--------------------|--------------------|---------------------|


                                                                 
--------------------|--------------------|----------------------|
--10~---------------|--7--------8--------|--10/-------13--------|
--------------------|--------------------|----------------------|
--------------------|--------------------|----------------------|
--------------------|--------------------|----------------------|
--------------------|--------------------|----------------------|


                                                                 
----------------------|---------------------|-------------------|
--11--------10--------|--11/-------8--------|--8~---------------|
----------------------|---------------------|-------------------|
----------------------|---------------------|-------------------|
----------------------|---------------------|-------------------|
----------------------|---------------------|-------------------|


                                                                   
--10/-------22/-------|--17~---------------|--17/-------20--------|
----------------------|--------------------|----------------------|
----------------------|--------------------|----------------------|
----------------------|--------------------|----------------------|
----------------------|--------------------|----------------------|
----------------------|--------------------|----------------------|


                                                                   
--18--------17/-------|--18--------15--------|--15~---------------|
----------------------|----------------------|--------------------|
----------------------|----------------------|--------------------|
----------------------|----------------------|--------------------|
----------------------|----------------------|--------------------|
----------------------|----------------------|--------------------|


                                                                     
------------10--------|--12/-------14--------|----------------------|
--10------------------|----------------------|--10--------10~-------|
----------------------|----------------------|----------------------|
----------------------|----------------------|----------------------|
----------------------|----------------------|----------------------|
----------------------|----------------------|----------------------|


                                                                     
--14--------14/-------|--12--------12/-------|--10--------10/-------|
----------------------|----------------------|----------------------|
----------------------|----------------------|----------------------|
----------------------|----------------------|----------------------|
----------------------|----------------------|----------------------|
----------------------|----------------------|----------------------|


                                                              
--5--------6/-------|--5--------3--------|--6~---------------|
--------------------|--------------------|-------------------|
--------------------|--------------------|-------------------|
--------------------|--------------------|-------------------|
--------------------|--------------------|-------------------|
--------------------|--------------------|-------------------|


                                                                
--8--------10--------10--------|--8--------10--------10--------|
--8--------10--------10--------|--8--------10--------10--------|
-------------------------------|-------------------------------|
-------------------------------|-------------------------------|
-------------------------------|-------------------------------|
-------------------------------|-------------------------------|


                                                                
--8--------10--------10--------|--8--------10--------10--------|
--8--------10--------10--------|--8--------10--------10--------|
-------------------------------|-------------------------------|
-------------------------------|-------------------------------|
-------------------------------|-------------------------------|
-------------------------------|-------------------------------|


                                                                 
--8--------10--------10--------|--10----------------------------|
--8--------10--------10--------|--10--------11~-------10~-------|
-------------------------------|--------------------------------|
-------------------------------|--------------------------------|
-------------------------------|--------------------------------|
-------------------------------|--------------------------------|


                                                                  
------------10--------12/-------|--14--------12/-------14--------|
--10----------------------------|--------------------------------|
--------------------------------|--------------------------------|
--------------------------------|--------------------------------|
--------------------------------|--------------------------------|
--------------------------------|--------------------------------|


                                                                 
-------------------------------|--------------------------------|
--10--------10~-------7/-------|--10--------13--------11p-------|
-------------------------------|--------------------------------|
-------------------------------|--------------------------------|
-------------------------------|--------------------------------|
-------------------------------|--------------------------------|


                                             Fade out          
--------------------------------|--------------------||
--10h-------11~-------10--------|--8--------7/-------||
--------------------------------|-----------7/-------||
--------------------------------|--------------------||
--------------------------------|--------------------||
--------------------------------|--------------------||
Comments