Harrigan Francis - Come Back To Me Chords & Tabs

 

Come Back To Me Chords & Tabs

Harrigan Francis Chords & Tabs

Version: 1 Type: Tab 0 ratings
1 star 2 stars 3 stars 4 stars 5 stars
comments

Come Back To Me Tab

   
Song by: francis Harrigan
Title:"come back to me"


Intro:
e ---------------------------------------------------------------------------------------3
b ---------------3------------------------3--3-------------------3-------------------3----
g --------0--0-----0--0------------0--0--0---------------0--0---0--0------------0---------
d ------0--0--------0------------0--0-------------------0--0-------0----------------------
a --2h3---------------------2h3--------------------2h3----------------------2h3-----------
e ----------------------------------------------------------------------------------------


Pre chorus:
{Cadd9}           {Dmjr} {Cadd9}                 {Dmnr7}      
Dont step on that train, look back at my tear filled face,                                                   
{Cadd9}           {Dmjr} {Cadd9}                 {Dmnr7}      
Dont step on that train, think back to our last embrace,
{n/c}
And...

Chrous:
{Gmjr}                {Dmjr}
Come back to me, come back to me,
{Cadd9}      {Dmnr7}
Come back, dont go away
{Gmjr}                {Dmjr}
Come back to me, come back to me,
{Cadd9}     {Dmnr7}
Come back, dont leave this place.
[ Tab from: http://www.guitartabs.cc/tabs/h/harrigan_francis/come_back_to_me_tab.html ]
Verse: 
{Cadd9}                 {Dmjr}
Cant stand another day, alone in this 
{Cadd9} {Dmnr7}
 place,     Without you near me,
{Cadd9}                 {Dmjr}
If you dont know what to say,
                  {Cadd9}
Just think of the day,
{Dmnr7}
That i first kissed you,
{N/c}
And...

Chrous:
{Gmjr}                {Dmjr}
Come back to me, come back to me,
{Cadd9}      {Dmnr7}
Come back, dont go away
{Gmjr}                {Dmjr}
Come back to me, come back to me,
{Cadd9}     {Dmnr7}
Come back, dont leave this place.

Verse:
{Cadd9}           {Dmjr}
All i have to say, is that it was my mistake
{Cadd9}                      {Dmnr7}
Our love i did foresake, and i'v never been so sorry,

Break:{Cadd9}{Dmnr7}   
               Ohhhhh im sorry,
          {Cadd9}{Dmjr}
{N/c}
Please.......

Chrous:
{Gmjr}                {Dmjr}
Come back to me, come back to me,
{Cadd9}      {Dmnr7}
Come back, dont go away
{Gmjr}                {Dmjr}
Come back to me, come back to me,
{Cadd9}     {Dmnr7}
Come back, dont go away,
{Gmjr}
Im sorrry!

Outro:
e ---------------------------------------------------------------------------------------3
b ---------------3------------------------3--3-------------------3-------------------3----
g --------0--0-----0--0------------0--0--0---------------0--0---0--0------------0---------
d ------0--0--------0------------0--0-------------------0--0-------0----------------------
a --2h3---------------------2h3--------------------2h3----------------------2h3-----------
e ----------------------------------------------------------------------------------------


Alrite thats it, that was my first tab so enjoy! and look out for more of my stuff in the future
Comments