Harper Ben - Woman In You Chords & Tabs

 

Woman In You Chords & Tabs

Harper Ben Chords & Tabs

Version: 2 Type: Tab 3 ratings
1 star 2 stars 3 stars 4 stars 5 stars
comments

Woman In You Tab

   
Song: Woman In You 
Artist: Ben Harper
Tabbed by Jérôme Desfeux (defff@caramail.com)

Intro & Verse

e----------------------------------------------------------------
b-----------3-----2^3--2^3^2-------------------------------------
g-----------2-----2-----------2------------7----7-----9^7--------
d-----------4-----2------------------------7^9-----9--7----9-----
a---0^2--2-----0-----------------0-/7----------------------------
e--------------------------------------0-------------------------
[ Tab from: http://www.guitartabs.cc/tabs/h/harper_ben/woman_in_you_tab_ver_2.html ]
Then...
1. e-------------     2. e-------------
   b----10---8---        b----8---8----
   g-----7---7---        g----7--------
   d-------------        d-------------
   a-------------        a-------------
   e-------------        e-------------


Chorus: 
(dist off)
  Bm    E    G    A

(dist on)

 repeat all the chords a few times
e---------------------
b---------------------
g---------------------
d---2-----5-----7-----
a---2-----5-----7-----
e---0-----3-----5-----


Comments