Harper Ben - Widow Of A Living Man Chords & Tabs

 

Widow Of A Living Man Chords & Tabs

Harper Ben Chords & Tabs

Version: 1 Type: Tab 0 ratings
1 star 2 stars 3 stars 4 stars 5 stars
comments

Widow Of A Living Man Tab

Song : Widow of a Living Man 
Artist : Ben HARPER
Disc : The Will To Live

Tabbed by J.Desfeux


Intro:

|------0------0--0--0---|------0------0--0--0----||
|------0------0--0--0---|------0------0--0--0----||
|------2------2--2--2---|--2---2------2--2--2--.-||
|------2------2--2--2---|------2------2--2--2--.-||
|--0--------------------|------------------------||
|-----------------------|------------------------||


Verse:

|------0------0--0--0--|------0--0---------------|
|------0------0--0--0--|------0--0------0--0-----|
|------2------2--2--2--|------2--2------0--0-----|
|------2------2--2--2--|------2--2------0--0-----|
|--0-------------------|--0----------2-----------|
|----------------------|-------------------------|

|----------------------|-------------------------|
|-----1-------1--1--1--|-------1-----1--1--1-----|
|-----0-------0--0--0--|-------0-----0--0--0-----|
|-----2-------2--2--2--|--0^2--------2--2--2-----|
|--3----------3--3--3--|-------------3--3--3-----|
|----------------------|-------------------------|

|-----3-------3--3--3--|-----3-------3--3--3------|
|-----3-------3--3--3--|-----3-------3--3--3------|
|-----0-------0--0--0--|-----0-------0--0--0------|
|-----0-------0--0--0--|-----0-------0--0--0------|
|-----2-------2--2--2--|-----2-------2--2--2------|
|--3-------------------|--3-----------------------|

|-----2-------2--2--2--|-----2-------2--2--2------|
|-----3-------3--3--3--|-----3-------3--3--3------|
|-----2-------2--2--2--|-----2-------2--2--2------|
|-----0-------0--0--0--|-----0-------0--0--0------|
|-----0-------0--0--0--|-----0-------0--0--0------|
|--2-------------------|--2-----------------------|


Chorus:
[ Tab from: http://www.guitartabs.cc/tabs/h/harper_ben/widow_of_a_living_man_tab.html ]
|-----0-------0--0--0--|-----0--------0--0--0----|
|-----1-------1--1--1--|-----1--------1--1--1----|
|-----2-------2--2--2--|-----2--------2--2--2----|
|-----2-------2--2--2--|-----2--------2--2--2----|
|--0-------------------|--0----------------------|
|----------------------|-------------------------|

|-----0-------0--0--0--|-----0--------0--0--0----|
|-----1-------1--1--1--|-----1--------1--1--1----|
|-----2-------2--2--2--|-----2--------2--2--2----|
|--3--3-------3--3--3--|--3--3--------3--3--3----|
|----------------------|-------------------------|
|----------------------|-------------------------|

|-----3-------3--3--3--|-----3--------3--3--3----|
|-----3-------3--3--3--|-----3--------3--3--3----|
|-----0-------0--0--0--|-----0--------0--0--0----|
|-----0-------0--0--0--|-----0--------0--0--0----|
|-----2----------------|-----2--------2--2--2----|
|--3-------------------|--3----------------------|

|-----0-------0--0--0--|-----3--------3--3--3----|
|-----1-------1--1--1--|-----3--------3--3--3----|
|-----2-------2--2--2--|-----0--------0--0--0----|
|-----2-------2--2--2--|-----0--------0--0--0----|
|--0-------------------|-----2--------2--2--2----|
|----------------------|--3----------------------|

|-----0-------0--0--0--|-----3--------3--3--3----|
|-----1-------1--1--1--|-----3--------3--3--3----|
|-----2-------2--2--2--|-----0--------0--0--0----|
|-----2-------2--2--2--|-----0--------0--0--0----|
|--0-------------------|-----2--------2--2--2----|
|----------------------|--3----------------------|

|-----0-------0--0--0--|-----3--------3--3--3----|
|-----1-------1--1--1--|-----3--------3--3--3----|
|-----2-------2--2--2--|-----0--------0--0--0----|
|-----2-------2--2--2--|-----0--------0--0--0----|
|--0-------------------|-----2--------2--2--2----|
|----------------------|--3----------------------|

|-----2-------2--2--2--|-----3--------3--3--3----|
|-----3-------3--3--3--|-----3--------3--3--3----|
|-----2-------2--2--2--|-----0--------0--0--0----|
|-----0-------0--0--0--|-----0--------0--0--0----|
|-----0-------0--0--0--|-----2--------2--2--2----|
|--2-------------------|--3----------------------|
Comments