Harper Ben - Walk Away Chords & Tabs

 

Walk Away Chords & Tabs

Harper Ben Chords & Tabs

Version: 1 Type: Tab 4 ratings
1 star 2 stars 3 stars 4 stars 5 stars
comments

Walk Away Tab

this tab was created using Tab Studio 1.0     http://www.geocities.com/tabstudio/
Artist :Ben Harper
Song :Walk Away
Album :Welcome to the Cruel World
Tuning :standard
Tabbed By :Nick Dennis
E-mail Address: tabstudio@hotmail.com
The song is simple. Just listen to is to figure out where each part comes in. The intro and one little transition is slightly different but easy to figure out.
[ Tab from: http://www.guitartabs.cc/tabs/h/harper_ben/walk_away_tab.html ]
verse
e  |-----------------------------------
B  |-----3-3-----3-3-----3-3-------3-3-
G  |-----0-0-----0-0-----0-0-------0-0-
D  |-----------------------------------
A  |-----------------------------------
E  |-3-3-----2-2-----0-0-----0h2-2-----

chorus
e  |---------------------------------
B  |-----3-3-----3-3-----3-3-----3-3-
G  |-----0-0-----0-0-----0-0-----0-0-
D  |---------------------------------
A  |-3-3-----2-2-----0-0-------------
E  |-------------------------3-3-----

bridge
e  |---------------------------------
B  |-----3-3-----3-3-----3-3-----3-3-
G  |-----0-0-----0-0-----0-0-----0-0-
D  |---------------------------------
A  |-0-0-----------------------------
E  |---------0-0-----3-3-----2-2-----
Comments