Harper Ben - There Will Be A Light Chords & Tabs

 

There Will Be A Light Chords & Tabs

Harper Ben Chords & Tabs

Version: 1 Type: Tab 0 ratings
1 star 2 stars 3 stars 4 stars 5 stars
comments

There Will Be A Light Tab

   

Ben Harper and the Blind Boys of Alabama
There will be a light
(Solo Acoustic)


Intro
   A   A/G#    E   D         A    E
e ---------------------------------------------------------
B -2-2-2-2-2-2-0-0-3-3-3-3-3-2-2--0-2-3--------------------
G -2-2-2-2-2-2-1-1-2-2-2-2-2-2-2--1-2-4--------------------
D -----------------0-0-0-----------------------------------
A -0-0-------------------4-2-0-0---------------------------
E -----4-4-2-2-0-0----------------0------------------------

Verse
e -------------------------------------------------------------
B -2-2--2-2---2-2--0-0----3-3---3-(let ring)-2-2----0-2-3------
G -2-2--2-2---2-2--1-1---2--2--2-------------2-2----1-2-4------
D ----------------------0-----0--------------------------------
A -0--0----------------------------4-2-------0-----------------
E ------4--4--2--2-0--0--------------------------0-------------

Bridge
   A    E/G#   D   A      F#m    E    D   A  E   A
e ---------------------------2-----0---------------------------
B -2-2--5-5----7-5----------2-----0---7-5----------------------
G -2-2--4-4----7-6-6--6----2-----1----7-6-6--------------------
D -------------0---7--7---4-----2-----0---7--------------------
A -0--0------------0----------------------0-------0------------
E ------4--4-------------2-----0-------------0-0/2-------------


e ---------------------------2-----0---------------------------
B -2-2--5-5----7-5----------2-----0---7-5----------------------
G -2-2--4-4----7-6-6--6----2-----1----7-6-6--------------------
D -------------0---7--7---4-----2-----0---7--------------------
A -0--0------------0----------------------0-------0------------
E ------4--4-------------2-----0-------------0-0/2-------------

[ Tab from: http://www.guitartabs.cc/tabs/h/harper_ben/there_will_be_a_light_tab.html ]
Verse
e -------------------------------------------------------------
B -2-2--2-2---2-2--0-0----3-3---3-(let ring)-2-2----0-2-3------
G -2-2--2-2---2-2--1-1---2--2--2-------------2-2----1-2-4------
D ----------------------0-----0--------------------------------
A -0--0----------------------------4-2-------0-----------------
E ------4--4--2--2-0--0--------------------------0-------------


Bridge
e ---------------------------2-----0---------------------------
B -2-2--5-5----7-5----------2-----0---7-5----------------------
G -2-2--4-4----7-6-6--6----2-----1----7-6-6--------------------
D -------------0---7--7---4-----2-----0---7--------------------
A -0--0------------0----------------------0-------0------------
E ------4--4-------------2-----0-------------0-0/2-------------


e ---------------------------2-----0---------------------------
B -2-2--5-5----7-5----------2-----0---7-5----------------------
G -2-2--4-4----7-6-6--6----2-----1----7-6-6--------------------
D -------------0---7--7---4-----2-----0---7--------------------
A -0--0------------0----------------------0--------------------
E ------4--4-------------2-----0-------------------------------

Chorus
   Bmin    F#m     Bmin    A       Bmin    E   E
e ---------------------------------------------/4~4-------------
B -3-3-3-3-2-2-2-2-3-3-3-3-2-2-2-2-3-3-3-3-0---/5~5-------------
G -4-4-4-4-2-2-2-2-4-4-4-4-2-2-2-2-4-4-4-4-1--------------------
D --------------------------------------------------------------
A -2-2-2-2---------2-2-2-2-0-0-0-0-2-2-2-2----------------------
E ---------2-2-2-2-------------------------0---0----------------


Verse
e -------------------------------------------------------------
B -2-2--2-2---2-2--0-0----3-3---3-(let ring)-2-2----0-2-3------
G -2-2--2-2---2-2--1-1---2--2--2-------------2-2----1-2-4------
D ----------------------0-----0--------------------------------
A -0--0----------------------------4-2-------0-----------------
E ------4--4--2--2-0--0--------------------------0-------------
Comments