Harper Ben - Sweet Home Chicago Chords & Tabs

 

Sweet Home Chicago Chords & Tabs

Harper Ben Chords & Tabs

Version: 1 Type: Tab 0 ratings
1 star 2 stars 3 stars 4 stars 5 stars
comments

Sweet Home Chicago Tab

   
#----------------------------------PLEASE NOTE---------------------------------#
#This file is the author's own work and represents their interpretation of the #
#song. You may only use this file for private study, scholarship, or research. #
#------------------------------------------------------------------------------#
#

Sweet Home Chicago
------------------
Artist: Ben Harper
Album: Pleasure And Pain Vinyl

Tuning: D Tuning (DADF#AD)


Hypnothic Verse Riff:

      *-- Here you got to press your slide in order to make it
      |   touch the fret, achieving a kind of "clok" sound
      v
D :-|-\4--0----------------|-
A :-|-\4-----0-------------|-
F#:-|-----------0------0---|-
D :-|----------------------|-
A :-|---------------0------|-
D :-|----------------------|-

End of chorus:
D :---\7----------\7----------\7----------\5--\5~-------\4---------
A :---\7----------\7----------\7----------\5--\5~-------\4---------
F#:---\7----------\7----------\7----------\5--\5~-------\4---------
D :---\7----------\7----------\7----------\5--\5~-------\4---------
A :---\7----------\7----------\7----------\5--\5~-------\4---------
D :----------------------------------------------------------------
     (back to that little light city)    (sweet home Chicago)


**********************************************************************************************************


Artist: Ben Harper

Song: Two Hands of a Prayer

Album: Burn to Shine

Tabbed by: bill mccorey (JuliusMagee@CS.com)

Intro:
------
[ Tab from: http://www.guitartabs.cc/tabs/h/harper_ben/sweet_home_chicago_tab.html ]
   Em           D
e|----0-0-0-0-0-0---2-2-3-2-|-|-|-----------------------------0-0-0-0-|
B|----0-0-0-0-1-0---3-3-3-3-|-|-|-----------1-1-3-1-----------0-0-1-0-|
G|----0-0-0-0-0-0---2-2-2-2-|%|%|-----0h2---2-2-2-2-----------0-0-0-0-|
D|----2-2-2-2-2-2-0---------|-|-|-0-0-------2-2-2-2-----0h2---2-2-2-2-|
A|-2------------------------|-|-|---------0---------0-0-------2-2-2-2-|
E|--0-----------------------|-|-|---------------------------0-------0-|


Couplet: (Same as Intro)

Riff A: (before chorus)
--------

     Em            D     C        Em   Em     D   C
e|-----------------0-0---0-|-|-|--------0-----2---0------|
B|----------0-1-0--3-3---1-|-|-|--------0-----3---1------|
G|----------0-0-0--0-0---0-|%|%|--------0-----2---0------|
D|----------2-2-2--4-4---2-|-|-|-2-2-2--2-----0---2------|
A|--2-2-2---2-2-2--5-5---3-|-|-|-2-2-2--2---------3------|
E|--0-0-0------------------|-|-|-0-0-0--0----------------|
                                             The Two...




e|----------------------------------------|
B|----------------------------------------|
G|-2h4p2-0--0h2p0-------------------------|
D|-----------------------5h7-5(h7p5)------|
A|----------------3--5h7------------7-----|
E|------------------------------------0---|


*************************************************************************************************************

**************************************************************************************************************


Comments