Harper Ben - So High So Low Chords & Tabs

 

So High So Low Chords & Tabs

Harper Ben Chords & Tabs

Version: 1 Type: Tab 0 ratings
1 star 2 stars 3 stars 4 stars 5 stars
comments

So High So Low Tab

   
So High So Low     ...ben Harper    ...from "Diamonds on the Inside"

I thought I'd tab a few songs from the new Ben Harper album for 
those big Ben fans like myself. I got the Album yesterday and knew 
this would be something I'd be looking for in here. So here's So High So Low, 
song number 11. It's a very basic tab, but it's a very basic song.
If you have the album you'll have the lyrics so I'll stick to the music.



Main Riff:
e------------------------------||    
b------------------------------||    
g------------------------------||x4 
d------------------------------||     
a-----------------------3------||     
E---5--5-5-3-5--5-5-3-5---5-3--||      
[ Tab from: http://www.guitartabs.cc/tabs/h/harper_ben/so_high_so_low_tab.html ]
e-------------------------------|-------------------------------||
b-------------------------------|-------------------------------||
g-------------------------------|-------------------------------||
d------------------------3------|---------------(B)-------------||
a----5--5-5-3-5--5-5-3-5---5-3--|---5--5-5-3-5--5-5--3-5-3------||
E-------------------------------|--------------------------5-3--||

e------------------------------||    
b------------------------------||    
g------------------------------||x2 
d------------------------------||     
a-----------------------3------||     
E---5--5-5-3-5--5-5-3-5---5-3--||      


Chorus:
	F |G G#|Riff :||



Enjoy....... Frizzle Fry
Comments