Harper Ben - Shes Only Happy In The Sun Chords & Tabs

 

Shes Only Happy In The Sun Chords & Tabs

Harper Ben Chords & Tabs

Version: 1 Type: Bass Tab 0 ratings
1 star 2 stars 3 stars 4 stars 5 stars
comments

Shes Only Happy In The Sun Bass Tab

   
Artist: Ben Harper
Song: Track 14 - She’s only happy in the sun
Album: Diamonds on the Inside

This is my first tab, so bare with me
This is a song off of Ben Harper’s newest album. It’s a great song and is an easy one to play. Enjoy.


Verse:

This is just the chords and the base lines, you’ll have to listen to the song to get the rythem.

D                           G/E
-----------2-----------------3----------- ------3----------------3---
-----------3-----------------3------------------3----------------3---
-----------2---------------------------------------------------------
-----0-----------------------2------------------2----------------2---
-----------------------------2--------2---------2---------0----------
--------------------0------------------------------------------------


Chorus:

Same as above, just the chords and base lines, listen to the song for the rythem.
[ Tab from: http://www.guitartabs.cc/tabs/h/harper_ben/shes_only_happy_in_the_sun_btab.html ]
G               ??                     D                  G                      ??                   D
-------3---------------2--------------------2------------------------2---------------------2-----------------2----------------------------
-------3---------------2--------------------3------------------------2---------------------2-----------------3----------------------------
--------------------------------------------2----------------------------------------------------------------2----------------------------
---------------------------------------0---------------------------------------------------------------0-----------------------------------
-------2---------0--------------------------------3---2--------------2------------0------------------------------3---2--1--------------
--3--- 3---------------3-----------------------------------3---------3---------------------3-----------------------------------3---------


Lyrics:

V1:  I know you may not want to see me, 
     on your way down, from the clouds
     Would you hear me if I told you, 
     that my heart is with you now.

C:   She’s only happy in the sun
     She’s only happy in the sun

V2:  Did you find what you were after, 
     the pain and the laughter, brought you to your knees
     If the sun makes you free, makes you free
     Then your free indeed, indeed

C:   She’s only happy in the sun
     She’s only happy in the sun

V3:  Everytime I hear you laughing, 
     hear you laughing, It makes me cry
     Like the story of a life
     Of your life, hello, goodbye

C:   She’s only happy in the sun
     She’s only happy in the sun
     She’s only happy in the sun
     She’s only happy in the sun 
     
- tabbed by J.H.

Another great one from Ben, play it with passion. 
Comments