Harper Ben - Sexual Healing Live Chords & Tabs

 

Sexual Healing Live Chords & Tabs

Harper Ben Chords & Tabs

Version: 1 Type: Tab 0 ratings
1 star 2 stars 3 stars 4 stars 5 stars
comments

Sexual Healing Live Tab

   
Ben Harper 
Sexual Healing Live from Mars(Tabbed from Video)
Tuned Down to  D G C F A D
Tabbed by John Wisniewski
johnwiz208@yahoo.com

Intro/Verse
D|--------------------------------------------
A|------------1-1-------1-1-------------------
F|------------2-2-------2-2-------------------     
C|----0-0-----2-2-------3-3----------0h2------   
G|----2-2--0-----------------3---0h3-----3----
D|-3--3-3---------0--1--1-1-------------------
[ Tab from: http://www.guitartabs.cc/tabs/h/harper_ben/sexual_healing_live_tab.html ]
Intro into Chorus
D|--------------------------------------------
A|------------1-1-----------------------------
F|------------2-2------------0----------------     
C|----0-0-----2-2---0--2--3-------------------   
G|----2-2--0--------------------3-------------
D|-3--3-3-------------------------------------

Chorus
D|--------------------------------------------
A|-1--1--1-1--1------0--0--0-0--0--1--1-1---1-
F|-0--0--0-0--0------1--1--1-1--1--2--2-2---2-    
C|-2--2--2-2--2-0h2--2--2--2-2--2--3--3-3---3-  
G|-3--3--3-3--3------2--2--2-2--2-------------
D|-------------------0--0--0-0--0--1--1-1---1-

Ending
D|--------------------------------------------
A|----------1---------------------------------
F|--------0-----------------------------------     
C|------2-------------------------------------   
G|----3---------------------------------------
D|--3-----------------------------------------

Comments