Harper Ben - Roses From My Friends Chords & Tabs

 

Roses From My Friends Chords & Tabs

Harper Ben Chords & Tabs

Version: 2 Type: Tab 0 ratings
1 star 2 stars 3 stars 4 stars 5 stars
comments

Roses From My Friends Tab

   
Ben Harper 
Roses From My Friends.

I was looking for this song and i could not find one correct tab,
so i signed up just to have this on the net.
This is from the live version

I have been playing for 3 and a half months

INTRO

e|------3------3-----3-2---------------------------------------------|
B|-----0------0-----3---3-0-1---1------------------------------------|
G|----0------0-----2-----2-----2-------------------------------------|
D|---0------0-----0-----------2--------------------------------------|
A|--2------2---------------------------------------------------------|
E|-3------3----------------------------------------------------------|



VERSE__________________________________________________________
TAB 1                                                          \
    ^    < ^ < < ^  < ^ < ^ ^  ^  < ^ < < < ^ < ^ ^  < ^ < ^    \
e|--3-|--3-3-3-3-3--2-2-2-3-2--0--0-0-0-0-0-0-0-0-0-------------|\
B|--0-|--0-0-0-0-0--3-3-3-3-3--0--1-1-1-1-1-1-1-1-1-------------| \
G|--0-|--0-0-0-0-0--2-2-2-2-2--0--2-0-2-2-2-2-0-2-2-------------|  \
D|--0-|--0-0-0-0-0--0-0-0-0-0--0--2-0-2-2-2-2-0-2-2--0-0-0-0----|   \
A|--2-|--2-2-2-2-2-----------------------------------0-0-0-2----|    \
E|--3-|--3-3-3-3-3-----------------------------------0-2-3-3----|     |
                                                                      |
TAB 2                                                                 |
    < ^ < < ^  < ^ < ^ ^  ^  < ^ < < < ^ < ^ ^ < ^ < ^                |
e|--3-3-3-3-3--2-2-2-3-2--0--0-0-0-0-0-0-0/0-0-0-0\0-0---------|     /
B|--0-0-0-0-0--3-3-3-3-3--0--1-1-1-1-1-1-1/3-3-3-3\1-0---------|    /
G|--0-0-0-0-0--2-2-2-2-2--0--2-0-2-2-2-2-2/4-4-4-4\1-0---------|   /
D|--0-0-0-0-0--0-0-0-0-0--0--2-0-2-2-2-2-2/4-4-4-4\2-----------|  /
A|--2-2-2-2-2--------------------------------------0-----------| /
E|--3-3-3-3-3--------------------------------------------------|/
_______________________________________________________________/



_________________________________________________________________________
   <   ^ <  < ^   <   ^ <  < ^   <   ^ <  < ^   <   ^ < ^     < < ^ < < ^\
e|-3---3-3--3-3---0---0-0--0-0---3---3-3--3-3---0---0-0-0-----0-0-0-0-0-0|\
B|-0---0-0--0-0---1---1-1--1-1---0---0-0--0-0---1---1-1-1-----0-0-0-0-0-0| \
G|-0---0-0--0-0---0---0-0--0-0---0---0-0--0-0---0---0-0-0-----0-0-0-0-0-0|  \
D|-0---0-0--0-0---2---2-2--2-2---2---0-0--0-0---2---2-2-2-----2-2-2-2-2-2|   \
A|-2---2-2--2-2---3---3-3--3-3---3---2-2--2-2---3---3-3-3-0h2-2-2-2-2-2-2|    \
E|-3---3-3--3-3----------------------3-3--3-3-----------------0-0-0-0-0-0|     \
                                                                                \
    < ^ < ^  ^  < < ^ < < < < ^ <      <  ^ < < ^  < ^ < ^  ^                    \
e|--2-2-2-3—-2--0-0-0-------3-3-3------0--0-0-0-0--2-2-2-3--2---------|           |
B|--3-3-3-3--3--1-1-1-0-1---0-0-0------0--0-0-0-0--3-3-3-3--3---------|           |
G|--2-2-2-2--2--0-0-0-0-2-0-0-0-0------0--0-0-0-0--2-2-2-2--2---------|           |
D|--0-0-0-0--0--2-2-2-0-2-0-0-0-0------2--2-2-2-2--0-0-0-0--0---------|           |
A|--------------3-3-3-2-0-2-2-2-2--0h2-2--2-2-2-2---------------------|           |
E|--------------------3-0-3-3-3-3------0--2-2-2-2---------------------|           |
                                                                                 / 
    <  < ^ <  < ^ < < ^ < < ^        <      <                                   /
e|--0--0-0-0--0-0----------------------------------------------|               /
B|--1--1-1-0--0-0-1-1-1-1-1-1--------0------0------------------|              /
G|--0--0-0-0--0-0-2-2-2-2-2-2--------0------0------------------|             /
D|--2--2-2-2--2-2-2-2-2-2-2-2--------0------0------------------|            /
A|--3--3-3-2--2-2-0-0-0-0-0-0-------------2--------------------|           /
E|---------0--0-0--------------0h2----3---------3--------------|          /
_________________________________________________________________________/

[ Tab from: http://www.guitartabs.cc/tabs/h/harper_ben/roses_from_my_friends_tab_ver_2.html ]
OUTRO____________________________________________________________________
   <   ^ <  < ^   <   ^ <  < ^   <   ^ <  < ^   <   ^ < ^     < < ^ < < ^\
e|-3---3-3--3-3---0---0-0--0-0---3---3-3--3-3---0---0-0-0-----0-0-0-0-0-0|\
B|-0---0-0--0-0---1---1-1--1-1---0---0-0--0-0---1---1-1-1-----0-0-0-0-0-0| \
G|-0---0-0--0-0---0---0-0--0-0---0---0-0--0-0---0---0-0-0-----0-0-0-0-0-0|  \
D|-0---0-0--0-0---2---2-2--2-2---2---0-0--0-0---2---2-2-2-----2-2-2-2-2-2|   \
A|-2---2-2--2-2---3---3-3--3-3---3---2-2--2-2---3---3-3-3-0h2-2-2-2-2-2-2|    \
E|-3---3-3--3-3----------------------3-3--3-3-----------------0-0-0-0-0-0|     \
                                                                                \
    < ^ < ^  ^  < < ^ < < < < ^ <                                                \
e|--2-2-2-3—-2--0-0-0-0-0---3-3-3--|                                              |
B|--3-3-3-3--3--1-1-1-0-0---0-0-0--|                                              |
G|--2-2-2-2--2--0-0-0-0-2-0-0-0-0--|                                              | 
D|--0-0-0-0--0--2-2-2-2-2-0-0-0-0--|                                              |
A|--------------3-3-3-2-0-2-2-2-2--|                                              |
E|--------------------0-0-3-3-3-3--|                                              |
                                                                                  |
   <   ^ <  < ^   <   ^ <  < ^   <   ^ <  < ^   <   ^ < ^     < < ^ < < ^         |
e|-3---3-3--3-3---0---0-0--0-0---3---3-3--3-3---0---0-0-0-----0-0-0-0-0-0|        |
B|-0---0-0--0-0---1---1-1--1-1---0---0-0--0-0---1---1-1-1-----0-0-0-0-0-0|        |
G|-0---0-0--0-0---0---0-0--0-0---0---0-0--0-0---0---0-0-0-----0-0-0-0-0-0|        |
D|-0---0-0--0-0---2---2-2--2-2---2---0-0--0-0---2---2-2-2-----2-2-2-2-2-2|        |
A|-2---2-2--2-2---3---3-3--3-3---3---2-2--2-2---3---3-3-3-0h2-2-2-2-2-2-2|        |
E|-3---3-3--3-3----------------------3-3--3-3-----------------0-0-0-0-0-0|        |
                                                                                  |
   < ^ < ^  ^  ^ < < ^ < < ^  < ^ < ^  ^  ^ < < ^ < < ^  < ^ < ^  ^  ^ < < ^ < < ^|
e|-2-2-2-3—-2--0-0-0-0-0-0-0--2-2-2-3—-2--0-0-0-0-0-0-0--2-2-2-3—-2--0-0-0-0-0-0-0|
B|-3-3-3-3--3--0-0-0-0-0-0-0--3-3-3-3--3--0-0-0-0-0-0-0--3-3-3-3--3--0-0-0-0-0-0-0|
G|-2-2-2-2--2--0-0-0-0-0-0-0--2-2-2-2--2--0-0-0-0-0-0-0--2-2-2-2--2--0-0-0-0-0-0-0|
D|-0-0-0-0--0--0-2-2-2-2-2-2--0-0-0-0--0--0-2-2-2-2-2-2--0-0-0-0--0--0-2-2-2-2-2-2|
A|---------------2-2-2-2-2-2----------------2-2-2-2-2-2----------------2-2-2-2-2-2|
E|---------------0-0-0-0-0-0----------------0-0-0-0-0-0----------------0-0-0-0-0-0|
                                                                                  |
   < ^ < ^  ^  ^ < < ^ < < ^  < ^ < ^  ^  ^ < < ^ < < ^                           |
e|-2-2-2-3—-2--0-0-0-0-0-0-0--2-2-2-3—-2--0-0-0-0-0-0-0--|                        |
B|-3-3-3-3--3--0-0-0-0-0-0-0--3-3-3-3--3--0-0-0-0-0-0-0--|                        |
G|-2-2-2-2--2--0-0-0-0-0-0-0--2-2-2-2--2--0-0-0-0-0-0-0--|                        |
D|-0-0-0-0--0--0-2-2-2-2-2-2--0-0-0-0--0--0-2-2-2-2-2-2--|                        |
A|---------------2-2-2-2-2-2----------------2-2-2-2-2-2--|                        |
E|---------------0-0-0-0-0-0----------------0-0-0-0-0-0--|                        |
                                                                                  |
    <  < ^ <  < ^ < < ^ < < ^        < < ^  <  < ^ <  < ^ < < ^ < < ^        < < ^|
e|--0--0-0----------------------------------0--0-0--------------------------------|
B|--1--1-1-0--0-0-1-1-1-1-1-1--------0-0-0--1--1-1-0--0-0-1-1-1-1-1-1--------0-0-0|
G|--0--0-0-0--0-0-2-2-2-2-2-2--------0-0-0--0--0-0-0--0-0-2-2-2-2-2-2--------0-0-0|
D|--2--2-2-0--0-0-2-2-2-2-2-2--------0-0-0--2--2-2-0--0-0-2-2-2-2-2-2--------0-0-0|
A|--3--3-3-2--2-2-0-0-0-0-0-0--------2-2-2--3--3-3-2--2-2-0-0-0-0-0-0--------2-2-2|
E|---------3--3-3--------------0h2---3-3-3---------3--3-3--------------0h2---3-3-3|
                                                                                  |
    <  < ^ <  < ^ < < ^ < < ^        < < ^  <  < ^ <  < ^ < < ^ < < ^        < < ^|
e|--0--0-0----------------------------------0--0-0-------------------------------3|
B|--1--1-1-0--0-0-1-1-1-1-1-1--------0-0-0--1--1-1-0--0-0-1-1-1-1-1-1--------0-0-0|
G|--0--0-0-0--0-0-2-2-2-2-2-2--------0-0-0--0--0-0-0--0-0-2-2-2-2-2-2--------0-0-0|
D|--2--2-2-0--0-0-2-2-2-2-2-2--------0-0-0--2--2-2-0--0-0-2-2-2-2-2-2--------0-0-0|
A|--3--3-3-2--2-2-0-0-0-0-0-0--------2-2-2--3--3-3-2--2-2-0-0-0-0-0-0--------2-2-2|
E|---------3--3-3--------------0h2---3-3-3---------3--3-3--------------0h2---3-3-3|
__________________________________________________________________________________|

order of events
INTRO
TAB 1
TAB 2  
TAB 1 X 7 
TAB 2 
CHORUS
TAB 1
TAB 2
TAB 1 X 6
CHORUS
TAB 1 X 8
OUTRO



tablegend
^    upstrum
<    downstrum
/    slide up
\    slide down
h    hammer
Comments