Harper Ben - Please Bleed Chords & Tabs

 

Please Bleed Chords & Tabs

Harper Ben Chords & Tabs

Version: 2 Type: Tab 0 ratings
1 star 2 stars 3 stars 4 stars 5 stars
comments

Please Bleed Tab

Please Bleed
by Ben Harper

Tune down a step
[ Tab from: http://www.guitartabs.cc/tabs/h/harper_ben/please_bleed_tab_ver_2.html ]
Verse
|--------------------------|--------------------------|
|--------------------------|--------------------------|
|--------------------------|-------------------------.|
|-----2--0--------0--------|----------------2-2^4^2--.|  Repeat several times
|--------------------4-----|--0--4--3----3------------|
|--0----------3------------|--------------------------|

Pre-Chorus
|--------------------------|--------------------------|
|--------------------------|--------------------------|
|--------------------------|--------------------------|
|-----2--0--------0--------|--------------------------|
|--------------------4-----|--0-----------------------|
|--0----------3------------|--------------------------|
Comments