Harper Ben - Glory And Consequence Chords & Tabs

 

Glory And Consequence Chords & Tabs

Harper Ben Chords & Tabs

Version: 1 Type: Bass Tab 0 ratings
1 star 2 stars 3 stars 4 stars 5 stars
comments

Glory And Consequence Bass Tab

                          GLORY and CONSEQUENCE
                BEN HARPER-dall'album "The Will To Live"
                                          Tabulato da STEFANO BERTOCCO
                                                      sfighengjs@iol.it
                                                      23 novembre 1999
                                                      Treviso, ITALIA


    INTRO                                                               
G-----------------------------------------------------------------------
D-----------------------------------------------------------------------
A---8-----10/(12)-----------------10-----10-----10/(12)--8-----10/------
E------------------8-----10/(12)----------------------------------------
                                                                        

                                                                        
G-----------------------------------|-----------------------------------
D-----------------------------------|-----------------------------------
A---(12)-----------------10-----10--|-----------------------------------
E---------8-----10/(12)-------------|-----------------------------------
                                                                        

    CHORUS                                                               
G-----------------------------------------------------------------------
D-----------------------------------------------------------------------
A---8--8--8-----8--8--8--8--10--8---------------------------------------
E----------------------------------------8--8--8-----8--8--8--8--10--8--
                                                                        
[ Tab from: http://www.guitartabs.cc/tabs/h/harper_ben/glory_and_consequence_btab.html ]
                                                                        
G-----------------------------------------------------------------------
D-----------------------------------------------------------------------
A------------10--10--10-----10--10--10--10--10--10--------10--10--10----
E-----------------------------------------------------------------------
                                                                        

                                                                        
G------------------------------|----------------------------------------
D------------------------------|----------------------------------------
A------10--10--10--10--12--10--|----------------------------------------
E------------------------------|----------------------------------------
                                                                        

    VERSO                                                              
G-----------------------------------------------------------------------
D----------------------------------------------------------------8--8---
A---------------8--8----------10-----8h10-----8h10-----8h10---10--------
E---8--8----------------------------------------------------------------
                                                                        

                                                                        

    SOLO                                                                
G-----------------------------------------------------------------------
D-----------------------------------------------------------------------
A---------------------------------------3--3--3-----3--3--3--3--3--3----
E---1--1--1-----1--1--1--1--1--1----------------------------------------
                                                                        

                                                                        
G-----------------------------------------------------------------------
D-----------------------------------------------------------------------
A-----------------------------------------------------------------------
E---3--3--3-----3--3--3--3--3--3--------3--3--3-----3--3--3--3--3--3----
                                                                        

Comments