Harper Ben - Give A Man A Home Chords & Tabs

 

Give A Man A Home Chords & Tabs

Harper Ben Chords & Tabs

Version: 1 Type: Tab 0 ratings
1 star 2 stars 3 stars 4 stars 5 stars
comments

Give A Man A Home Tab

GIVE A MAN A HOME by Ben Harper

Intro:  (Sounds 1 octave lower)
e-----------------------------|
b-----------------------------|
g----5--------5--------5------|
d--5--------5--------5--------|
a------3--------3--------3----|
E-----------------------------|
[ Tab from: http://www.guitartabs.cc/tabs/h/harper_ben/give_a_man_a_home_tab.html ]
Verses:
e----------------------------------------------------------|
b----------------------------------------------------------|
g----------------------------------------------------------|
d--2-2---2---2--2-2---2---2--------------------------------|
a--3---3---3----0---0---0---5-5---5-----4-----3---3------3-|
E---------------------------3---3---3-2---2-1---1-1--3-5---|

Chorus:
e----------------------------------------------------------|
b----------------------------------------------------------|
g----------------------------------------------------------|
d--2-2-2---2---2-------------------------------------------|
a--3-----3---3-3-5-5-5---5---5-7-7-7-----5---3--3-----3----|
E----------------3-----3---3-3-5-----5-3---3-1----3-5------|

Transcribed with sweat and soul by Frizzle
Comments