Harper Ben - Excuse Me Mr Chords & Tabs

 

Excuse Me Mr Chords & Tabs

Harper Ben Chords & Tabs

Version: 1 Type: Tab 1 rating
1 star 2 stars 3 stars 4 stars 5 stars
comments

Excuse Me Mr Tab

   
Song: Excuse me mr
Artist: Ben Harper
Album: Live from Mars + Fight for your Mind

Tabbed by: Jérôme Desfeux

Intro:
  Am
e---------------------------------------------------------------------
b------1--0-----------------------------------------------------------
g----2-------2--0--0--2------------2----------------------------------
d--2----------------------------2-----2--0-0-0-0----------------------
a-------------------------0--0--------------------3--0--0-------------
e---------------------------------------------------------------------
[ Tab from: http://www.guitartabs.cc/tabs/h/harper_ben/excuse_me_mr_tab.html ]
e---------------------------------------------------------------------
b------1--0------------1----------------------------------------------
g----2------2--0--0^2-----2----------2----------------0---------------
d--2-------------------------------2---2--0-0-0-0--3-----3---2---------
a----------------------------0--0-------------------------------------
e---------------------------------------------------------------------

e-------------------------
b-------1--0--------------
g-----2-------2--0--------
d---2---------------------
a-------------------------
e-------------------------

Verse & Chorus:
  Am         C                   G
e------------------------------------------------------------------
b--------1----1-----1------1-----0--------0---1----1----1---1------
g--------2----0-----0------0-----0--------0---2----2----2---2------
d------------------------------------------------------------------
a--0--0----------3------3------------------------0----0------------
e------------------------------------3--3--------------------------

Comments