Harper Ben - Excuse Me Mr Chords & Tabs

 

Excuse Me Mr Chords & Tabs

Harper Ben Chords & Tabs

Version: 1 Type: Bass Tab 0 ratings
1 star 2 stars 3 stars 4 stars 5 stars
comments

Excuse Me Mr Bass Tab

                              EXCUSE ME MR
             BEN HARPER-dall'album "FIGHT FOR YOUR MIND"
                                           tabulato da STEFANO BERTOCCO
                                                       sfighengjs@iol.it 
                                                       03 agosto 2000
                                                       Treviso, ITALIA

    Intro                                                               
G||------------------||
D||*-----3----------*||
A||*--------5\3-----*||
E||---3----------3---||
                                                                        
[ Tab from: http://www.guitartabs.cc/tabs/h/harper_ben/excuse_me_mr_btab.html ]
    Verse                                                                    
G||------------------------------------------------------||
D||*-----------3--3--3h(5)p3----------------------------*||
A||*--------------------------5\3-----------------------*||
E||---3--3--3----------------------3-----3--3--3--1--3---||
                                                                        

    End Of Verse         or                                             
G---------------------|--------------
D---5--3--5-----3--5--|--5-----3--5--
A------------5--------|-----5--------
E---------------------|--------------
                                                                        

         Chorus                                                         
G||---------------------------------------||
D||*-----------3--3--3-------5-----3--5--*||
A||*--------------------5\3-----5--------*||
E||---3--3--3-----------------------------||

Comments