Harper Ben - Diamonds On The Inside Chords & Tabs

 

Diamonds On The Inside Chords & Tabs

Harper Ben Chords & Tabs

Version: 1 Type: Tab 0 ratings
1 star 2 stars 3 stars 4 stars 5 stars
comments

Diamonds On The Inside Tab

   
#----------------------------------PLEASE NOTE---------------------------------#
#This file is the author's own work and represents their interpretation of the #
#song. You may only use this file for private study, scholarship, or research. #
#------------------------------------------------------------------------------#

Ben Harper - Diamonds on the Inside
Tabbed by: The Gooch

This is not a 100% accurate tab. There are a few guitars on this track
and I'm pretty sure this tab is a compillation of different parts. I
play it along with the cd alright. It serves as a pretty good starting 
point for this tune. If you have any questions (or corrections) 
email me: agueci@hotmail.com

Cheers
[ Tab from: http://www.guitartabs.cc/tabs/h/harper_ben/diamonds_on_the_inside_tab.html ]
Verse (Part 1)
                  G#/Ab    A#/Bb    C    A#/b      G#/Ab
e---------------------------------4------x------x------x---------4--
B---------------------------------4------2------4------2---------4--
G---------------------------------5------3------5------3---------5--
D----6-h-3------------------------6------3------5------3---------6--
A----------6-h-3------------------6------1------3------1---------6--
E------------------6-h-4-h-1------4------x------x------x---------4--

Chorus (Part 2)
                             F#/Gb       C#/Db      G#/Ab
e------------------------------2-----------x----------4----------------
B------------------------------2-----------5----------4----------------
G------------------------------3-----------6----------5----------------
D----6-h-3---------------------4-----------6----------6----------------
A----------6-h-3---------------4-----------4----------6----------------
E------------------6-h-4-h-1-s-2-----------x----------4----------------

Bridge (Part 3)
                        Repeat till end
of bridge then:
    C#/Db        D        F     
e-----x----------x--------1---------------------x-----x--------------
B-----5----------4--------1---------------------5-----7--------------
G-----6----------5--------2---------------------6-----8--------------
D-----6----------5--------3---------------------6-----8--------------
A-----4----------3--------3---------------------4-----6--------------
E-----x----------x--------1---------------------x-----x--------------
Comments