Harper Ben - Burn One Down Chords & Tabs

 

Burn One Down Chords & Tabs

Harper Ben Chords & Tabs

Version: 1 Type: Tab 0 ratings
1 star 2 stars 3 stars 4 stars 5 stars
comments

Burn One Down Tab

   
#----------------------------------PLEASE NOTE---------------------------------#
#This file is the author's own work and represents their interpretation of the #
#song. You may only use this file for private study, scholarship, or research. #
#------------------------------------------------------------------------------#

********************************************************************************
Song title:  Burn One Down
Artist: Ben Harper
Album: Fight For Your Mind

Transcribed by: Huw Morgan  (huw_la@yahoo.com)
Credit also given to: Damien Perret

April 26, 2000
********************************************************************************
Notes- Ben plays this song turned down a step to a DGCFAd tuning. However, 
       the transcription below is with standard EADGBe. If you want it to 
       sound exactly like the album you need to tune it down. 
       Also, this song is entirely fingerpicked. Use your thumb for the E, 
       A, and D strings. 

Chords
------
       EADGBe                     DGCFAd
G     (320033)  ---------->  F   (320033)
C     (x32010)  tuned down   A#  (x32010)
Em    (022000)               Am  (022000)


Riffs
-----
[ Tab from: http://www.guitartabs.cc/tabs/h/harper_ben/burn_one_down_tab.html ]
Riff 1
      G                   C
e|-----------------------------------|
B|-----------------------------------|
G|-----------------------------------|
D|----0-------0-----------------0----|
A|----2-------2-----0-2---3-2-0------|
E|--3-3---3-3-3---3-----3---------3--|

Riff 2
      G                   C
e|-----------------------------------|
B|-----------------------------------|
G|-----------------------------------|
D|----0-------0----------------------|
A|----2-------2-----0-2---3--2--0----|
E|--3-3---3-3-3---3-----3---------3--|

Riff 3
      G                      Em        C
e|-------------------------------------------------|
B|-------------------------------------1-----------|
G|-------------------------------------0-----------|
D|----0----0----0-0----------2---------2-----------|
A|----2----2----2-2----------2----3----3--3--2--0--|
E|--3-3--3-3--3-3-3--3--2--0---0-------------------|

Riff 4
       Em     C
e|-------------------------|
B|---------------1---------|
G|--------------0----------|
D|-----2-------2-----------|
A|-----2--3---3------------|
E|--0----------------------|



*Feel free to e-mail me (huw_la@yahoo.com) any questions, comments or 
 corrections.
Comments