Harper Ben - Burn One Down Chords & Tabs

 

Burn One Down Chords & Tabs

Harper Ben Chords & Tabs

Version: 1 Type: Bass Tab 0 ratings
1 star 2 stars 3 stars 4 stars 5 stars
comments

Burn One Down Bass Tab

Song: Burn One Down
Artist: Ben Harper
Album: Fight for Your Mind
Tabbed By: Dwight Ashleigh (fourstringfunk88@yahoo.com)

This song is tuned down one whole step.

Guitar Intro

Riff 1:
F|-----------------------|
C|--5-5--5---------------| 4x
G|---------5------3-2-0--|
D|------------3----------|
[ Tab from: http://www.guitartabs.cc/tabs/h/harper_ben/burn_one_down_btab.html ]
Verse:
F|------------------------------------------|
C|--5-5--5-------------3-3--3---------------| 2x
G|---------5------------------2-3--0-3-2-0--|
D|------------3--0-3-2----------------------|

Chorus:
F|------------------------------------------------|
C|--5-5--5------2-2--2----2-2--2-0-0--0-----------|
G|---------5-0---------2----------------3-2-0-----|
D|---------------------------------------------3--|

F|---------------------|
C|--2-2--2-0-0--0-3----|
G|---------------------|
D|---------------------|

Riff 1
Verse
Chorus
Riff 1 

Comments