Harper Ben - Alone Chords & Tabs

 

Alone Chords & Tabs

Harper Ben Chords & Tabs

Version: 1 Type: Tab 1 rating
1 star 2 stars 3 stars 4 stars 5 stars
comments

Alone Tab

#----------------------------------PLEASE NOTE--------------------------------#
#This file is the author's own work and represents their interpretation of the#
#song. You may only use this file for private study, scholarship, or research.#
#-----------------------------------------------------------------------------#
#-- File created with Instab - http://www.pconline.com/~smcarey/instab.html --#
#-----------------------------------------------------------------------------#

Author/Artist: Ben Harper
Title: Alone
Album: Burn to Shine
Transcribed by: Alan Barnosky
Email: bosstoner737@hotmail.com

------------------------------------------------------------------------------
------------------------------------------------------------------------------
----------------------------------0-0-0---------------------------------------
--7-7-7---5-5-5---4-4-4---5-5-5-----------4-4---4-4-4---1-1-------------------
--------------------------------3-------3-----2-------2-----------------------
-0------0-------0-------0-----------------------------------------------------
 play that a few times, and then then play this:                              
[ Tab from: http://www.guitartabs.cc/tabs/h/harper_ben/alone_tab.html ]
------------------------------------------------------------------------------
------------------------------------------------------------------------------
---0-0-0---------------------0-0-0--------------------------------------------
---------4-4---4-4-4---1-1-----------4-4---4-4-4---1-1------------------------
-3------3----2-------2-----3-------3-----2-------2----------------------------
------------------------------------------------------------------------------
 play this 4 times                                                            

------------------------------------------------------------------------------
------------------------------------------------------------------------------
------------------------------------------------------------------------------
---7-7-7---5-5-5---4-4-4---5-5-5----------------------------------------------
------------------------------------------------------------------------------
-0-------0-------0-------0----------------------------------------------------
 just repeat all of that a few times, and the song is over. The solo in E     

------------------------------------------------------------------------------
------------------------------------------------------------------------------
------------------------------------------------------------------------------
------------------------------------------------------------------------------
------------------------------------------------------------------------------
------------------------------------------------------------------------------
                                                                              

Comments