Harold Faltermeyer - Top Gun Anthem Chords & Tabs

 

Top Gun Anthem Chords & Tabs

Harold Faltermeyer Chords & Tabs

Version: 1 Type: Tab 0 ratings
1 star 2 stars 3 stars 4 stars 5 stars
comments

Top Gun Anthem Tab

   
 Top Gun Anthem
 By Harold Faltermeyer & Steve Stevens
 Posted by Halfdan Baadsvik
 halfdan@eskobar.nu

   G
 |---------------------------------------|
 |---------------------------------------|
 |---7-7-5-4-5-4---------4---4-5-4---4---|
 |-5-------------7-7-5-7---7-------5---7-|
 |---------------------------------------|
 |---------------------------------------|
   *     *           *         *   * * *
[ Tab from: http://www.guitartabs.cc/tabs/h/harold_faltermeyer/top_gun_anthem_tab.html ]
   G
 |---------------------------------------|
 |---------------------------------------|
 |---7-7-5-4-5-4---------4---4-5-4---7---|
 |-5-------------7-7-5-7---7-------5-----|
 |---------------------------------------|
 |---------------------------------------|
   *     *           *         *   * * 
  
   C#
 |---------------------------------------|
 |---9-9-7-6-7-6---------6---6-7-6---6---|
 |-6-------------8-8-6-8---8-------6---8-|
 |---------------------------------------|
 |---------------------------------------|
 |---------------------------------------|
   *     *           *         *   * * *
 
   C#
 |---------------------------------------|
 |---9-9-7-6-7-6---------6---6-7-6---9---|
 |-6-------------8-8-6-8---8-------6-----|
 |---------------------------------------|
 |---------------------------------------|
 |---------------------------------------|
   *     *           *         *   * *
 
 Then back to G. 
 
 * - The note above is also played by that 
     "mmmmm"-sound in the background.

 Improvised solo.
Comments