Harold Arlen - Somewhere Over The Rainbow Chords & Tabs

 

Somewhere Over The Rainbow Chords & Tabs

Harold Arlen Chords & Tabs

Version: 1 Type: Tab 2 ratings
1 star 2 stars 3 stars 4 stars 5 stars
comments

Somewhere Over The Rainbow Tab

e----3--2----0--2--3------0----------
B-----------------------------3-----1
G-0-------3-----------0--------------
D--------------------------------2---
A------------------------------------
E------------------------------------

e------------------------------------
B---0---------0--1------------------0
G------0--2----------2-------0--2----
D------------------------4-----------
A------------------------------------
E------------------------------------

REAPEAT ALL

e------------------------------------------------------0--0
B--3--0--3--0--3--0--3--0--3--1--3--1--3--1--3--1--3-------
G----------------------------------------------------------
D----------------------------------------------------------
A----------------------------------------------------------
E----------------------------------------------------------
[ Tab from: http://www.guitartabs.cc/tabs/h/harold_arlen/somewhere_over_the_rainbow_tab.html ]
e---------------------------------0-------0-------0-------0----2--2--5--0
B--3--0--3--0--3--0--3--0--3---2-------2-------2-------2-----------------
G------------------------------------------------------------------------
D------------------------------------------------------------------------
A------------------------------------------------------------------------
E------------------------------------------------------------------------


e----3--2----0--2--3------0----------
B-----------------------------3-----1
G-0-------3-----------0--------------
D--------------------------------2---
A------------------------------------
E------------------------------------

e------------------------------------
B---0---------0--1------------------0
G------0--2----------2-------0--2----
D------------------------4-----------
A------------------------------------
E------------------------------------



Comments