Harnum Jessica - Purity Syrup And Tang Chords & Tabs

 

Purity Syrup And Tang Chords & Tabs

Harnum Jessica Chords & Tabs

Version: 1 Type: Tab 0 ratings
1 star 2 stars 3 stars 4 stars 5 stars
comments

Purity Syrup And Tang Tab

Purity Syrup and Tang    By Jessica Harnum

This is the first song I've ever written and recorded. It's very simple and uses the 
picking technic which is good for beginners.
I also recommend House Of The Rising Sun (for Beginners) or anything by eric clapton 
(for more advanced students of course) to work on finger movement and cadence.
Please, If your able to put words or even other instruments into it, be my guest.
Email me if you do... I'm always open to fresh ideas.
jessica_harnum@yahoo.ca

 

Quick and steady
e-----------------------------------------------------------------------------------------------------------------------------B-----------------------------------------------------------------------------------------------------------------------------
G------------------------------------------------------------------------------------------------------0----------0-------0-
D-----------0--------0----------0--------0-------------0--------0----------0----------0-------0----------0--------0-----
A-------0---------0---------0---------0-----------0---------0----------0---------0--------2----------2--------2---------
E----2---------2--------2----------2----------3---------3----------3---------3--------------------------------------------


------------------------------------------------------------------------------------------------------------------
------------------------------------------------------------------------------------------------------------------
-----------0---------0---------0--------0--------0-----------------------------0--------0---------------------
-------0---------0---------0--------0---------0------------0---------0-----0--------0-------------0-------0-
---2---------1---------1---------1---------1------------0--------0------2--------1-------------0-------0----
-------------------------------------------------------2--------3-------------------------------2-------3-------


                                                                 * Dramatic Pause
---------------------------------------------------------------------------------
---------------------------------------------------------------------------------
----------0----------0---------0-------0-------0-------0 ---------------------
------0----------0---------0--------0-------0-------0-------------------------
--2----------1---------0---------0-------0-------0-----------0----------------
---------------------------------------------------------------------------------

                                                                                         *Dramatic Pause
---------------------------------------------------------------------------------------------------
---------------------------------------------------------------------------------------------------
---------------------------------------------------------------------------------------------------
--2-------0-------------------------2-------0-----------------------2-------0------------------
---------------------------------------------------------------------------------------------------
--0-------2---3-----3-3-3-3------0------2---3-----3-3-3-3------0-------2---3-----3-3-3-3-

[ Tab from: http://www.guitartabs.cc/tabs/h/harnum_jessica/purity_syrup_and_tang_tab.html ]
                          Let it ring                  Let it ring
-------------------------------------------------------------
-------------------------------------------------------------
-------------------------------------------------------------
--------0-------0-----------------------0---------0--------
-----0-------0----------------------0---------0------------
--2-------2----------0----------2---------2------------3--


--------------------------------------------------------------------------------------------------------------------------
--------------------------------------------------------------------------------------------------------------------------
-----------------------------------------------------------------------------------------------------0----------0-------0
-----------0--------0----------0--------0-------------0--------0----------0----------0-------0----------0--------0---
-------0---------0---------0---------0-----------0---------0----------0---------0--------2----------2--------2-------
----2---------2--------2----------2----------3---------3----------3---------3-----------------------------------------


-------------------------------------------------------------------------------------------------------------------
-------------------------------------------------------------------------------------------------------------------
----------------------------------------------------------------------------------0--------0----------------------
-----------0---------0---------0--------0--------0--------0---------0------0--------0-------------0----------0
-------0---------0---------0--------0---------0--------0--------0------2---------1-------------0---------0----
---2---------1---------1---------1---------1--------2-------3-------------------------------2----------3-------


                                                                                 * Dramatic Pause
---------------------------------------------------------------------------------
---------------------------------------------------------------------------------
----------0----------0---------0-------0-------0-------0 ---------------------
------0----------0---------0--------0-------0-------0-------------------------
--2----------1---------0---------0-------0-------0----------------------------
---------------------------------------------------------------------------------

                                                                                         * Dramatic Pause
---------------------------------------------------------------------------------------------------
---------------------------------------------------------------------------------------------------
---------------------------------------------------------------------------------------------------
--2-------0------------------------2-------0-------------------------2-------0------------------
---------------------------------------------------------------------------------------------------
--0-------2---3-----3-3-3-3------0------2---3-----3-3-3-3------0-------2---3-----3-3-3-3-


                             *Let it ring        slow          *Let it ring
-----------------------------------------------------------------------------
-----------------------------------------------------------------------------
-----------------------------------------------------------------------------
--------0-------0-----------------------------0---------0------------------
-----0-------0--------------------------0---------0------------------------
--2-------2----------0----------2---------2---------------------3---------

Thank-you for checking out my tab and I hope it works out for the best.
 It would be great if you could email me a recording of your playing or email me some tips for future references.
                                                                                           -Jessica Harnum
Comments