Harlem Yu - Qing Fei De Yi Chords & Tabs

 

Qing Fei De Yi Chords & Tabs

Harlem Yu Chords & Tabs

Version: 2 Type: Tab 0 ratings
1 star 2 stars 3 stars 4 stars 5 stars
comments

Qing Fei De Yi Tab

Title: Qing Fei De Yi
By: Harlem Yu

Tabbed by Justin Ong

 Electric guitar (jazz)
 - comes in right after the 1st verse
                                                                 
|---------------------------|
|-----------------8---------|
|----------5--7/9----9/7-5--|
|------2/7------------------|
|---------------------------|
|---------------------------|


                                                             
-------------------|-------------------|--------------------|
-------------------|------5------------|----5---------------|
--7----------------|-------------------|---------4----------|
-------------------|-------------------|--------------------|
-------------------|-------------------|--------------------|
-------------------|-------------------|--------------------|


                                                                     
---------------------|-----3----------------|-----------------------|
---------5-----------|--------5-------------|-----------------------|
----5---------5------|--4--------4----------|----5--5--5----5----5--|
---------------------|----------------------|-----------------------|
---------------------|----------------------|-----------------------|
---------------------|----------------------|-----------------------|


                                                                
-----------7----------|------------------|---------------------|
--------8-------------|------------------|--------3----3----5--|
-----9----------------|------------------|---------------------|
--9-------------------|------------------|---------------------|
----------------------|------------------|---------------------|
----------------------|------------------|---------------------|


                                                              
------------------|----7------------------|------------------|
------------------|-------8--10/-8--------|------------------|
------------------|-----------------------|------------------|
------------------|-----------------------|------------------|
------------------|-----------------------|------------------|
------------------|-----------------------|------------------|


                                                                
---------------------|------------------|----------------------|
----8----------------|------------------|------8----8----------|
-------9-------------|------------------|--------9-------------|
----------9----------|------------------|----9-----------------|
---------------------|------------------|----------------------|
---------------------|------------------|----------------------|


                                                                       
------------------|----------------------|----------------------------|
------------------|------8---------------|--8---------------8---------|
------------------|------7------5--7--5--|--9--------5--7/9----9/7-5--|
------------------|----------------------|-------5/7------------------|
------------------|----------------------|----------------------------|
------------------|----------------------|----------------------------|


                                                                                
------------------|------------------|------------------|----------------------|
------------------|------------------|------------------|--------8h10-8--------|
------------------|------------------|------------------|----------------------|
------------------|------------------|------------------|----------------------|
------------------|------------------|------------------|----------------------|
------------------|------------------|------------------|----------------------|


                                                         
------------------|------------------|------------------|
------------------|------------------|------------------|
------------------|------------------|------------------|
------------------|------------------|------------------|
------------------|------------------|------------------|
------------------|------------------|------------------|


                                                                    
-----------------------------|------------------|------------------|
--------------5h6-6-5--------|------------------|------------------|
----------5h7---------7-5-4--|------------------|------------------|
------5h7--------------------|------------------|------------------|
-----------------------------|------------------|------------------|
-----------------------------|------------------|------------------|


                                                                              
------------------|--------------------|------------------|------------------|
------------------|--------8/-5--------|------------------|------------------|
------------------|--------------------|------------------|------------------|
------------------|--------------------|------------------|------------------|
------------------|--------------------|------------------|------------------|
------------------|--------------------|------------------|------------------|


                                                                              
------------------|-------------------10-------------|-----------------------|
------------------|----------8-10/12------12-10------|-----------------------|
------------------|------7/9--------------------12-9-|--14/-------0----9/-0--|
------------------|----------------------------------|-----------------------|
------------------|----------------------------------|-----------------------|
------------------|----------------------------------|-----------------------|


                                                               
----8---------------|----------7----------|-------------------|
-------8------------|-------8-------------|-------------------|
--------------------|----9----------------|----5--------------|
--------------------|---------------------|-------------------|
--------------------|---------------------|-------------------|
--------------------|---------------------|-------------------|


                                                                         
----7-----------------------|----------8----------|----7----------------|
-------8-----8/10-8---------|-------8-------------|-------8-------------|
----------9----------9/7-5--|----9----------------|----------9----------|
----------------------------|---------------------|---------------------|
----------------------------|---------------------|---------------------|
----------------------------|---------------------|---------------------|


                                                                     
------------------|------------------------------|------------------|
------------------|---------8--------------------|------------------|
------------------|--7h9-10---10-9-7-------------|------------------|
------------------|------------------10-9--------|------------------|
------------------|------------------------------|------------------|
------------------|------------------------------|------------------|


                                                               
----7----------------|------------------|----7----------------|
-------8-------------|------------------|----------8----------|
----------9----------|------------------|-------9-------------|
---------------------|------------------|---------------------|
---------------------|------------------|---------------------|
---------------------|------------------|---------------------|


                                                            
------------------|----7----------------|------------------|
------------------|----------8----------|------------------|
------------------|-------9-------------|------------------|
------------------|---------------------|------------------|
------------------|---------------------|------------------|
------------------|---------------------|------------------|

[ Tab from: http://www.guitartabs.cc/tabs/h/harlem_yu/qing_fei_de_yi_tab_ver_2.html ]
                                                                            
--------------------------|-------------------|----------------------------|
--------8-----------------|-------------------|--5---------------8---------|
----7/9----9----9--7--5/7-|--7----------------|-----------5-7/9-----9/7/5--|
--------------------------|-------------------|-------5h7------------------|
--------------------------|-------------------|----------------------------|
--------------------------|-------------------|----------------------------|


                                                                            
-----------------------|--------------------8--|----10--12--10----8--7--8--|
--------------------6--|----8--10--8--------8--|----10--12--10----8--7--8--|
--4--5--7--5--------7--|----9--10--9-----------|---------------------------|
--5--7--9--7-----------|-----------------------|---------------------------|
-----------------------|-----------------------|---------------------------|
-----------------------|-----------------------|---------------------------|


                                                                              
---------------------------|-----------------------|----------------7-----8--|
-----------------8---------|--------------------6--|----8--10--8-------8--8--|
----------5-7/9-----9/7/5--|--4--5--7--5--------7--|----9--10--9-------------|
------5h7------------------|--5--7--9--7-----------|-------------------------|
---------------------------|-----------------------|-------------------------|
---------------------------|-----------------------|-------------------------|


                                                                     
----10--12--10----12--13--12--|------------------|------------------|
----10--12--10----12--13--12--|------------------|------------------|
------------------------------|------------------|------------------|
------------------------------|------------------|------------------|
------------------------------|------------------|------------------|
------------------------------|------------------|------------------|


                                                                            
------------------|----11b--15-12--10-------------------|------------------|
------------------|-------------------10-10r-12-12-10/8-|------------------|
------------------|-------------------------------------|------------------|
------------------|-------------------------------------|------------------|
------------------|-------------------------------------|------------------|
------------------|-------------------------------------|------------------|


                                                                  
------------------|------------------|---------------------------|
------------------|------------------|---------------------------|
------------------|------------------|-------5-7-9--9-7-5--------|
------------------|------------------|-----5-----------------5-7-|
------------------|------------------|---------------------------|
------------------|------------------|---------------------------|


                                                                          
----------------------------|------------------|----9------12--9/5-------|
----------------------------|------------------|-------10----------------|
------7--11--11-9-----------|------------------|-------------------------|
--7-9-------------12--------|------------------|-------------------------|
----------------------------|------------------|-------------------------|
----------------------------|------------------|-------------------------|


                                                                     
------------------|------------12----------------|------------------|
------------------|------12/14-----14/12-10------|------------------|
------------------|------------------------------|------------------|
------------------|------------------------------|------------------|
------------------|------------------------------|------------------|
------------------|------------------------------|------------------|


                                                                          
--------------------------|------------------|--14--12--12-10------------|
--------------------------|------------------|--14--12--------------5/---|
------9/11-9--9/11-9------|------------------|---------------------------|
--------------------------|------------------|---------------------------|
--------------------------|------------------|---------------------------|
--------------------------|------------------|---------------------------|


                                                               
-------------------|----9------------------|------------------|
--7----------------|-------10--------------|------------------|
-------------------|-----------11----------|------------------|
-------------------|-----------------------|------------------|
-------------------|-----------------------|------------------|
-------------------|-----------------------|------------------|


                                                                           
------10/7--------------------|------------------|------------------------|
-----------10--10/7-7---------|------------------|------------------------|
-----------------------9/7-7--|------------------|----------7-------------|
------------------------------|------------------|------7/9----9/7-7------|
------------------------------|------------------|------------------------|
------------------------------|------------------|------------------------|


                                                                    
------------------|-----------------------------|------------------|
------------------|------12/-15/12--------------|------------------|
------------------|----------------9/-11--11/---|------------------|
------------------|-----------------------------|------------------|
------------------|-----------------------------|------------------|
------------------|-----------------------------|------------------|


                                                              
-----------------------------|-------------------------------|
---------------7-10-7--------|--7----------------10----------|
-----------7-9--------9-7----|-----------7-9/11------11/9/7--|
-------7-9----------------9--|-------7h9---------------------|
-----------------------------|-------------------------------|
-----------------------------|-------------------------------|


                                                    
------------------------|----------------------10--|
---------------------8--|----10--12--10--------10--|
--6--7--9---7--------9--|----11--12--11------------|
--7--9--11--9-----------|--------------------------|
------------------------|--------------------------|
------------------------|--------------------------|


                                                             
----12--14--12----10--9--10--|------------------------------|
----12--14--12----10--9--10--|------------------10----------|
-----------------------------|----------7-9/11------11/9/7--|
-----------------------------|------7h9---------------------|
-----------------------------|------------------------------|
-----------------------------|------------------------------|


                                                       
------------------------|------------------9------10--|
---------------------8--|----10--12--10-------10--10--|
--6--7--9---7--------9--|----11--12--11---------------|
--7--9--11--9-----------|-----------------------------|
------------------------|-----------------------------|
------------------------|-----------------------------|


                                                  
----12--14--12----10--9----|--10----------------||
----12--14--12----10--9----|--10----------------||
---------------------------|--------------------||
---------------------------|--------------------||
---------------------------|--------------------||
---------------------------|--------------------||
Comments