Harlem - Gay Human Bones Chords & Tabs

 

Gay Human Bones Chords & Tabs

Harlem Chords & Tabs

Version: 1 Type: Bass Tab 0 ratings
1 star 2 stars 3 stars 4 stars 5 stars
comments

Gay Human Bones Bass Tab

   
-----------------------------------------------------------------
Gay Human Bones - Harlem
-----------------------------------------------------------------
Tabbed By: Madrone6
e-mail: je.mathnerd15@gmail.com
Tuning: Standard

Intro: (x1)

G|----------------|----------------|----------------|----------------|
D|----------------|----------------|----------------|----------------|
A|--------3-----3-|5-----5-0-----0-|--------3-----3-|5-----5-0-5-3-5-|
E|1-----1---------|----------------|1-----1---------|----------------|

Verse: (x1)

G|----------------|----------------|----------------|----------------|
D|----------------|----------------|----------------|----------------|
A|--------3-----3-|5-----5-0-----0-|--------3-----3-|5-----5-0-5-3-5-|
E|1-----1---------|----------------|1-----1---------|----------------|
[ Tab from: http://www.guitartabs.cc/tabs/h/harlem/gay_human_bones_btab.html ]
G|----------------|----------------|----------------|----------------|
D|----------------|----------------|----------------|----------------|
A|--------3-----3-|5-----5-0-----0-|--------3-----3-|5-----5-0---0---|
E|1-----1---------|----------------|1-----1---------|----------------|

G|----------------|----------------|----------------|----------------|
D|----------------|----------------|----------------|----------------|
A|--------3-----3-|5-----5-0---0---|--------3-----3-|5-----5-0---0---|
E|1-----1---------|----------------|1-----1---------|----------------|

Chorus: (x1)

G|----------------|----------------|----------------|----------------|
D|----------------|----------------|----------------|----------------|
A|1-----1-1-----1-|----------------|----------------|0-----0-0-----0-|
E|----------------|3-----3-3-----3-|1-----1-1-----1-|----------------| (x4)

G|----------------|
D|----------------|
A|0---------------|
E|----------------|

Break: Intro (x1)

Verse: (x1)

Chorus: (x1)

Break: (x4)

Chorus: (x1)

Outro: (x1)

G|----------------|----------------|----------------|
D|----------------|----------------|----------------|
A|--------3-------|5-------0-------|----------------|
E|1---------------|----------------|1---------------|



| /  slide up
| \  slide down
| h  hammer-on
| p  pull-off
| ~  vibrato
| +  harmonic
| x  Mute note

Comments