Harlem - Friendly Ghost Chords & Tabs

 

Friendly Ghost Chords & Tabs

Harlem Chords & Tabs

Version: 1 Type: Bass Tab 0 ratings
1 star 2 stars 3 stars 4 stars 5 stars
comments

Friendly Ghost Bass Tab

   
-----------------------------------------------------------------
Friendly Ghost - Harlem
-----------------------------------------------------------------
Tabbed By: Madrone6
e-mail: je.mathnerd15@gmail.com
Tuning: Standard

Verse: (x2)

G|----------------|----------------|----------------|----------------|
D|----------------|----------------|----------------|----------------|
A|4-4-4-4-4-4---4-|4-4-4-4-4-4---4-|4-4-4-4-4-4---4-|4-4-6-6-4-4-6-6-|
E|----------------|----------------|----------------|----------------|

G|----------------|----------------|----------------|----------------|
D|----------------|----------------|----------------|----------------|
A|----------------|----------------|----------------|----3-3-----3-3-|
E|4-4-4-4-4-4---4-|4-4-4-4-4-4---4-|4-4-4-4-4-4---4-|4-4-----4-4-----|

Chorus: (x2)

G|----------------|----------------|----------------|----------------|
D|----3---4---6---|----3---4---6---|----3---4---6---|----3---4---6---|
A|4-------------4-|--4-------------|4-------------4-|--4-------------|
E|----------------|----------------|----------------|----------------|
[ Tab from: http://www.guitartabs.cc/tabs/h/harlem/friendly_ghost_btab.html ]
G|----------------|----------------|----------------|----------------|
D|----------------|----------------|----------------|----------------|
A|----3---4---6---|----3---4---6---|----3---4---6---|----6---4---3---|
E|4-------------4-|--4-------------|4-------------4-|--4-------------|

Post-Chorus: (x1)

G|----------------|----------------|----------------|----------------|
D|----------------|----------------|----------------|----------------|
A|----------------|----------------|----------------|----------------|
E|----------------|----------------|4---4---4-4---4-|4---4---4-4-----|

G|----------------|----------------|----------------|----------------|
D|----------------|----------------|----------------|----------------|
A|----------------|----------------|----------------|----------------|
E|----------------|----------------|4---4---4-4---4-|4---4---4-4---4-|

G|----------------|----------------|
D|----------------|----------------|
A|----------------|----3-------3---|
E|4---4---4-4---4-|4-------4-------|

Verse: (x2)

Chorus: (x2)

Post-Chorus: (x1)

Verse: (x2)

Chorus: (x2)

Outro: (x1)

G|----------------|----------------|----------------|----------------|
D|----------------|----------------|----------------|----------------|
A|----------------|----------------|----------------|----------------|
E|----------------|----------------|4---------------|----------------|



| /  slide up
| \  slide down
| h  hammer-on
| p  pull-off
| ~  vibrato
| +  harmonic
| x  Mute note

Comments