Harem Scarem - Something To Say Chords & Tabs

 

Something To Say Chords & Tabs

Harem Scarem Chords & Tabs

Version: 5 Type: Tab 0 ratings
1 star 2 stars 3 stars 4 stars 5 stars
comments

Something To Say Tab

Artist: Harem Scarem
Song: Something to say
Transcribed by: Philip Sabio

[ Tab from: http://www.guitartabs.cc/tabs/h/harem_scarem/something_to_say_tab_ver_5.html ]
Intro:
|---2-----------5------------------------0-------------3---3/5-5/3----|
|---------3--------5------------------------0----------3---3/5-5/3----|
|------2--------------0-------------0---------------------------------|
|---0--------------------0-------0------------------------------------|
|---------------------------2/4---------------------------------------|
|------------------------------------------------2-3-----3------------|
                                                        |
                                                        |
                                    Repeat but this one-| will be
              |----------------------9p8--------------------------------|
              |---------------------------9p8---------------------------|
              |-------------0------------------8p9----------------------|
              |---------0-----------------------------------------------|
              |---0-----------------------------------------------------|
              |---------------------------------------------------------|

                                                   End of intro.
Comments