Harem Scarem - Something To Say Chords & Tabs

 

Something To Say Chords & Tabs

Harem Scarem Chords & Tabs

Version: 2 Type: Tab 0 ratings
1 star 2 stars 3 stars 4 stars 5 stars
comments

Something To Say Tab

   
#----------------------------------PLEASE NOTE---------------------------------#
#This file is the author's own work and represents their interpretation of the #
#song. You may only use this file for private study, scholarship, or research. #
#------------------------------------------------------------------------------#


Something to Say 
By:Harem Scarem
Intro:
                                                                           
e |2-----5-----------------------3-----3s5-5p3-|2-----5-----------------------3-0-|
B |3---3---3---------6-----------3-----3s5-5p3-|3---3---3---------6-----------3-2-|
G |2-2------2----5-----5---5--------0----------|2-2------2----5-----5---5-----0-0-|
D |0---------0-----5-----5---------------------|0---------0-----5-----5-----------|
A |-----------2s4------------------------------|-----------2s4--------------------|
E |--------------------------2-3---------------|---------------------------2-3----|                       
                      

e |----10p9----------|---------|
B |---------10-------|--3--3--3|
G |6s7---------9-6s7-|--2--2--2|
D |------------------|0--0--0--|
A |------------------|---------|
E |------------------|---------|

Verse:                                                                        

e |--2--2-2---3-3-3--5p3--|
B |--3--3-2-2-3-3-3-----3-|
G |--2--2-2--2----3-3----3|
D |0---0---0--------------|
A |-----------------------|
E |------------3-0--------|

Pre-Chorus:                                        

e |-----------2----------------0------|----------3------------------------|
B |---------3---3---3--------2---2---2|--------3---3---3----------------2-|
G |-------4-------4--------2-------2--|------0-------0--------0-------2---|
D |-----4----------------2------------|----0----------------0-------2-----|
A |---2----------------0--------------|--2----------------2-------0-------|
E |-----------------------------------|3----------------3-----------------|

[ Tab from: http://www.guitartabs.cc/tabs/h/harem_scarem/something_to_say_tab_ver_2.html ]
e |-----------2----------------0------|----------3-----------0-|
B |---------3---3---3--------2---2---2|--------3---3---3-----2-|
G |-------4-------4--------2-------2--|------0-------0-------2-|
D |-----4----------------2------------|----0-----------------2-|
A |---2----------------0--------------|--2-------------------0-|
E |-----------------------------------|3-----------------------|

Chorus:                                   

e |----------2----------2----------0-----------0----3------2---0|
B |--------3----------3----------2-----------2-----3------3---2-|
G |------2----------2----------2-----------2------0------4---2--|
D |----0----------0---------------------------------------------|
A |------------------------0-----------0--------------0-2---0---|
E |----------------------------------------------3---3----------|
       
                                                       
e |----------2----------2----------0-----------0--------2---0----3--------0----------------10p9----------|
B |--------3----------3----------2-----------2--------3---2---3---3----0--0-0---3---2----3------10-------|
G |------2----------2----------2-----------2---------4---2---0-0------0-0--0---0-0-2-2--2----------9-6s7-|
D |----0----------0--------------------------------------------------------------------0-----------------|
A |------------------------0-----------0-----------2----0-------------------------0----------------------|
E |---------------------------------------------------------3------2-0--------3--------------------------|

Bridge:
Bm-Bm-C-C-Bm-Bm-C-D

Solo:
Sorry Idon't know the solo

Ending:

e |---------10p9------------------|
B |----3---------10-----------ah7-|
G |--2--------------9-6s7-----ah7-|
D |0-----------------------0------|
A |-------------------------------|
E |-------------------------------|

Note:   This is my own Interpretation of the song ( I don't know if this is correct but it sounds good )
	If you have any comment about this please feel free to email me :avcmab@quickweb.com.ph	but don't mail
	me junk emails pls.	
Comments