Harem Scarem - Something To Say Chords & Tabs

 

Something To Say Chords & Tabs

Harem Scarem Chords & Tabs

Version: 1 Type: Tab 0 ratings
1 star 2 stars 3 stars 4 stars 5 stars
comments

Something To Say Tab

   
Song: Something to say
Artist: Harem Scarem
Transcribed by: Philip Sabio

Intro: 

|------------------5p2-----------------------------0----------------3---------3/5---5/3---|
|---3-------------------3------------------------------0------------3---------3/5---5/3---|
|---2--------2--------------2------------4--------------------------------0---------------|
|---0----0------------------------------------2------------------------0------------------|
|---------------------------------2/4-----------------------------------------------------|
|-------------------------------------------------------------3--2------------------------|



|---2---------------5p2-----------------------------0---------------3-------------|--------10p9-----------------|
|---3-------------------3------------------------------0------------3-----2-------|--2/9---------10-------------|
|---2--------2--------------2------------4--------------------------------2-------|--------------------9--6h7---|
|---0----0------------------------------------2---------------------------2-------|-----------------------------|
|---------------------------------2/4-------------------------------------0-------|-----------------------------|
|-------------------------------------------------------------3--2----------------|-----------------------------|


Verse 1:
														    
|-------------------------------2-------2--------2-------2----------7--------7-------6--------12p10-------------|   
|-------2-------2-------2-------3-------3--------2-------2----------8--------8-------5----------------11--------|
|-------3-------3-------3------------------------------------------------7-------7-------0----------------12----|
|---0-------0-------0-------0-------0-------0--------0------0---------------------------------------------------|
|---------------------------------------------------------------------------------------------------------------|
|---------------------------------------------------------------------------------------------------------------|



|----------2-------2-------2----------7---------7-----------6--------12p10------------------|   
|---2------3-------2-------2----------8---------8-----------5----------------11-------------|
|---3--------------------------------------7----------7----------0--------------------12----|
|---0---0------0------0---------0-----------------------------------------------------------|
|-------------------------------------------------------------------------------------------|
|-------------------------------------------------------------------------------------------|



Pre-chorus:

|-------------------2----------------------------------0--------------------------------------------|
|---------------3-------3------------------------------0----------------------------------3---------|
|-----------4---------------4---------------------2---------2--------------------------0-----0------|
|-------4-----------------------4------------2------------------2------------------0------------0---|
|---2-----------------------------------0---------------------------0-------------------------------|
|----------------------------------------------------------------------------3----------------------|



|-----------------------------------|
|--------3---3-----------------2----|
|--------0---0-----------------0----|
|-------------------------2---------|
|----------------2----0-------------|
|---3-------------------------------|



|-----------------------------2------------------------0---------0------------------------------------|---------|--10p9-----------|
|---------------3-----------------3--------------------0---------0-------------------------3----------|---2-----|--------10-------|
|-----------4-------4-----------------------------2---------2--------------------------0------0-------|---2-----|-----------9--6h7|
|-------4---------------4--------------------2-------------------------------------0--------------0---|---2-----|-----------------|
|---2-----------------------------------0-------------------------------------------------------------|---0-----|-----------------|
|----------------------------------------------------------------------------3------------------------|---------|-----------------|



Chorus 1:

|-----------------2-------2---------7--------7-------6--------12p10-------------|   
|-------2---------2-------2---------8--------8-------5----------------11--------|
|-------3--------------------------------7-------7-------0-----------------10---|
|---0---------0-------0-------0-------------------------------------------------|
|-------------------------------------------------------------------------------|
|-------------------------------------------------------------------------------|

[ Tab from: http://www.guitartabs.cc/tabs/h/harem_scarem/something_to_say_tab.html ]
|-------------2----------------5---------7-------7-------6----12p10-------------|
|---3---------3-------7--------7---------8-------8-------5------------11--------|
|---2-----------------6--------6-------------7-------7---------------------10---|
|---0---0---------0-------0---------0-------------------------------------------|
|-------------------------------------------------------------------------------|
|-------------------------------------------------------------------------------|


|-------------------2----------------------------------0--------------------------------------------|
|---------------3-------3------------------------------0----------------------------------3---------|
|-----------4---------------4---------------------2---------2--------------------------0-----0------|
|-------4-----------------------4------------2------------------2------------------0------------0---|
|---2-----------------------------------0---------------------------0-------------------------------|
|----------------------------------------------------------------------------3----------------------|



|-----------------------------------|
|--------3---3-----------------2----|
|--------0---0-----------------0----|
|-------------------------2---------|
|----------------2----0-------------|
|---3-------------------------------|


|-----------------------------2------------------------0---------0------------------------------------|---------|
|---------------3-----------------3--------------------0---------0-------------------------3----------|---2-----|
|-----------4-------4-----------------------------2---------2--------------------------0------0-------|---2-----|
|-------4---------------4--------------------2-------------------------------------0--------------0---|---2-----|
|---2-----------------------------------0-------------------------------------------------------------|---0-----|
|----------------------------------------------------------------------------3------------------------|---------|



Chorus 2:

This is the line for (If you ever have something that you wanted to say...)
|-----------------2---2---0------------------0-------------------------------------------------------------------------|
|------------3----3---3---3--------------0-----------0--------------------3-------------------------3-------------2----|
|-------2----------------------------2-----------2--------------------0------0------------------4----------------------|
|---0--------------------------------2-----------2---------------0---------------0----------4----------------2---------|
|-------------------------------0-------------------------------------------------------2----------------0-------------|
|-----------------------------------------------------------3----------------------------------------------------------|


|-----------------2---2---0------------------0-----------------------------------------------------------------|
|------------3----3---3---3--------------0-----------0----------------------3-------------2----------------3---|
|-------2----------------------------2-----------2----------------------4------------------------------0-------|
|---0--------------------------------2-----------2------------------4----------------2-------------0-----------|
|-------------------------------0-------------------------------2----------------0-----------------------------|
|----------------------------------------------------------------------------------------------3---------------|


|----------------------0---------------------------2-------------10p9----------------------|
|-------------------------0--------------------3---3--------------------10-----------------|
|-----------------0----------0-------------2---------------------------------9----6h7------|
|-------------2-----------------2------0------------------0------------------------------0-|
|------------------------------------------------------------------------------------------|
|---3--2--0--------------------------------------------------------------------------------|



Bridge:
                   (1)		          2x  	(2)			2x     Repeat I after playing, play II 
|-----------------|---------------2-----------|---------------3-------------|
|---3---2--3------|-------------------3-------|-------------------3---------|
|---2---2--4------|----------4-----------4----|-----------5-----------5-----|
|-----------------|------4------------------4-|-------5-------------------5-|
|----------2------|---2-----------------------|---3-------------------------|
|-----------------|---------------------------|-----------------------------|


Legend:

/ = slide 
p = pull off
| = bar
h = hammer




			If you have any corrections please mail me at khdmp@yahoo.com
                      
Comments