Harem Scarem - Honestly Chords & Tabs

 

Honestly Chords & Tabs

Harem Scarem Chords & Tabs

Version: 5 Type: Tab 0 ratings
1 star 2 stars 3 stars 4 stars 5 stars
comments

Honestly Tab

   
Title of the Song: Honestly
	   Artist: Harem Scarem
      Transcriber: Nimrad N. Ubando
	   	 (Dagupan City, RP)

I'm only new in guitar playing and actually ds is my 1st attemp 
in tabbing a song for others. I'm not that sure f d song
is play this way. But I'm sure that this song s GREAT 
gwapo jordz!!!).

Corrections and improvements are all welcome.
E-mail me at nimrad@newmail.net

Special thanks to Michael Solis of Calasioa, Pangasinann
RP.

HONESTLY>>>>>>>>>>>>>>>>>>>>>>>>>>>>>>>>>>>>>>>>>>>>>>>>

Intro:
e|-----------------|-------------------7-|-----4-2-0-2-------0-|
b|-------------0---|-------------5p4---5-|-------------------0-|
g|-----------1---1-|-------------4-------|-2/4-4-2-1-2-----2---|
d|-----4---4-------|---------------------|---------------2-----|
a|---2---2---------|-----2-4/6-4-----4---|-------------0-------|
e|-0---------------|-2-4-----------------|---------------------|

e|-----0--------7-----5-----4-----2--------------|
b|-------4------9-9---5-7---5-5---4-4-----0------|
g|-2/4-----4--------------------------------1----|
d|--------------------------------------------2--|
a|-----------------------------------------------|
e|------------0-----0-----0-----0-----2/4--------|

Verse1:  E-C#m-A2-E
e|-------0-------|-----------|-----------7-----|------------|-------0-------|
b|---------0-----|-----------|-----5p4---5---5-|------------|---------0-----|
g|-----------1---|-----------|---------------4-|-----4------|-----2-----2---|
d|-----2-------2-|-----------|---6---------6---|-4/6---6-4\-|---2---------2-|
a|---2-----------|-----2-4/6-|-4-------4-------|------------|-0-------------|
e|-0-------------|-2-4-------|-----------------|------------|---------------|

			    Verse1 Ending
e|------------------|-------0---------------------|
b|------------------|---------0-------------------|
g|-----------4------|-----------1-----------------|
d|-----2-4/6---6-4\-|-----2-------2-1-1-1-2p1-----|
a|-2-4--------------|---2---------------------(2)-|
e|------------------|-0-------------0-0-0-0-------|

Verse2:				Verse2 Ending
			e|-------0-----------------------|
Do Verse1 except	b|---------0-------9-------7-----|
Verse Ending		g|-----------1-------9-------8---|
			d|-----2-------2-------9-------9-|
			a|---2-----------7-------6-------|
			e|-0-----------------------------|
[ Tab from: http://www.guitartabs.cc/tabs/h/harem_scarem/honestly_tab_ver_5.html ]
Refrain:
e|---------4---------------2---------------0----------------------|
b|-----------4---------------2---------------0---------5----7-----|
g|-----6-------6-------4-------4-------2-------2--------0-----8---|
d|---6---6-------6---4---4-------4---2---2-------2-----6--------9-|
a|-4---------------2---------------0---------------5/7----6-------|
e|----------------------------------------------------------------|
					(A2)	
e|---------4---------------2-------------0-------0-----|
b|-----------4---------------2-------------0---0---0---|
g|-----6-------6-------4-------4-------2-----2-------2-|
d|---6---6-------6---4---4-------4---2-----------------|
a|-4---------------2---------------0-------------------|
e|-----------------------------------------------------|


Chorus:
e|-------0-------|---------------------7-|------------|-------0-------|
b|---------0-----|---------------5p2---5-|------------|---------0-----|
g|-----------1---|---------------2-------|-----4------|-----2-----2---|
d|-----2-------2-|-------------6---------|-4/6---6-4\-|---2---------2-|
a|---2-----------|-----2-4/6-4-------4---|------------|-0-------------|
e|-0-------------|-2-4-------------------|------------|---------------|

			Chorus Ending
e|------------------|-----------------------|
b|------------------|-----------------------|
g|-----------4------|-------1-2p1-----------|
d|-----2-4/6---6-4\-|-----2-------(2)-------|
a|-2-4--------------|---2-------------------|
e|------------------|-0---------------------|

Verse3:				Verse3 Ending
			e|---7-----5-----4-----2--------------|
Do Verse1 Except	b|---9-9---5-7---5-5---4-4-----0------|
Verse ending		g|-------------------------------1----|
			d|---------------------------------2--|
			a|------------------------------------|
			e|-0-----0-----0-----0-----2/4--------|

Verse4: 
Do Verse2 with the same Verse Ending

Repeat Refrain
Repeat Chorus using Verse3 Ending as its Ending
Repeat Chorus using Verse2 Ending as its Ending

Adlib: Do Refrain Tabliture


Bridge:
e|---------0-------|---------0-------|---------0-------|-------0----------|
b|-----------0-----|-----3-----3-----|-----------0-----|---------1--------|
g|-------------1---|---2-----2---2---|-----2---2---2---|-----0-----0------|
d|-----2---2-----2-|-0-----0-------0-|---2---2-------2-|---2--------------|
a|---2---2---------|-----------------|-0---------------|-3----------------|
e|-0---------------|-----------------|-----------------|--------------3-2-|

e|---------0-------|---------0-------|---------0-------|-0-|--------------|
b|-----------0-----|-----3-----3-----|-----------0-----|-1-|--------------|
g|-------------1---|---2-----2---2---|-----2---2---2---|-0-|--------------|
d|-----2---2-----2-|-0-----0-------0-|---2---2-------2-|-2-|--------------|
a|---2---2---------|-----------------|-0---------------|-3-|--------------|
e|-0---------------|-----------------|-----------------|-3-|--------------|
							    lonely feeling...
	
Repeat Chorus ending with simple E Chord
Comments